  0
SECTION
  2
HEADER
  9
$ACADVER
  1
AC1027
  9
$ACADMAINTVER
 70
   105
  9
$DWGCODEPAGE
  3
ANSI_932
  9
$LASTSAVEDBY
  1
a.yasuda
  9
$REQUIREDVERSIONS
160
                 0
  9
$INSBASE
 10
0.0
 20
0.0
 30
0.0
  9
$EXTMIN
 10
0.0
 20
0.0
 30
0.0
  9
$EXTMAX
 10
302.9997823349792
 20
216.0016055409748
 30
0.0
  9
$LIMMIN
 10
0.0
 20
0.0
  9
$LIMMAX
 10
302.9997823349792
 20
216.0016055409748
  9
$ORTHOMODE
 70
     0
  9
$REGENMODE
 70
     1
  9
$FILLMODE
 70
     1
  9
$QTEXTMODE
 70
     0
  9
$MIRRTEXT
 70
     1
  9
$LTSCALE
 40
1.0
  9
$ATTMODE
 70
     1
  9
$TEXTSIZE
 40
2.5
  9
$TRACEWID
 40
1.0
  9
$TEXTSTYLE
  7
Standard
  9
$CLAYER
  8
0
  9
$CELTYPE
  6
ByLayer
  9
$CECOLOR
 62
   256
  9
$CELTSCALE
 40
1.0
  9
$DISPSILH
 70
     0
  9
$DIMSCALE
 40
1.0
  9
$DIMASZ
 40
2.5
  9
$DIMEXO
 40
0.625
  9
$DIMDLI
 40
3.75
  9
$DIMRND
 40
0.0
  9
$DIMDLE
 40
0.0
  9
$DIMEXE
 40
1.25
  9
$DIMTP
 40
0.0
  9
$DIMTM
 40
0.0
  9
$DIMTXT
 40
2.5
  9
$DIMCEN
 40
2.5
  9
$DIMTSZ
 40
0.0
  9
$DIMTOL
 70
     0
  9
$DIMLIM
 70
     0
  9
$DIMTIH
 70
     0
  9
$DIMTOH
 70
     0
  9
$DIMSE1
 70
     0
  9
$DIMSE2
 70
     0
  9
$DIMTAD
 70
     1
  9
$DIMZIN
 70
     8
  9
$DIMBLK
  1

  9
$DIMASO
 70
     1
  9
$DIMSHO
 70
     1
  9
$DIMPOST
  1

  9
$DIMAPOST
  1

  9
$DIMALT
 70
     0
  9
$DIMALTD
 70
     3
  9
$DIMALTF
 40
0.03937007874016
  9
$DIMLFAC
 40
1.0
  9
$DIMTOFL
 70
     1
  9
$DIMTVP
 40
0.0
  9
$DIMTIX
 70
     0
  9
$DIMSOXD
 70
     0
  9
$DIMSAH
 70
     0
  9
$DIMBLK1
  1

  9
$DIMBLK2
  1

  9
$DIMSTYLE
  2
ISO-25
  9
$DIMCLRD
 70
     0
  9
$DIMCLRE
 70
     0
  9
$DIMCLRT
 70
     0
  9
$DIMTFAC
 40
1.0
  9
$DIMGAP
 40
0.625
  9
$DIMJUST
 70
     0
  9
$DIMSD1
 70
     0
  9
$DIMSD2
 70
     0
  9
$DIMTOLJ
 70
     0
  9
$DIMTZIN
 70
     8
  9
$DIMALTZ
 70
     0
  9
$DIMALTTZ
 70
     0
  9
$DIMUPT
 70
     0
  9
$DIMDEC
 70
     2
  9
$DIMTDEC
 70
     2
  9
$DIMALTU
 70
     2
  9
$DIMALTTD
 70
     3
  9
$DIMTXSTY
  7
Standard
  9
$DIMAUNIT
 70
     0
  9
$DIMADEC
 70
     0
  9
$DIMALTRND
 40
0.0
  9
$DIMAZIN
 70
     0
  9
$DIMDSEP
 70
    44
  9
$DIMATFIT
 70
     3
  9
$DIMFRAC
 70
     0
  9
$DIMLDRBLK
  1

  9
$DIMLUNIT
 70
     2
  9
$DIMLWD
 70
    -2
  9
$DIMLWE
 70
    -2
  9
$DIMTMOVE
 70
     0
  9
$DIMFXL
 40
1.0
  9
$DIMFXLON
 70
     0
  9
$DIMJOGANG
 40
0.7853981633974483
  9
$DIMTFILL
 70
     0
  9
$DIMTFILLCLR
 70
     0
  9
$DIMARCSYM
 70
     0
  9
$DIMLTYPE
  6

  9
$DIMLTEX1
  6

  9
$DIMLTEX2
  6

  9
$DIMTXTDIRECTION
 70
     0
  9
$LUNITS
 70
     2
  9
$LUPREC
 70
     4
  9
$SKETCHINC
 40
1.0
  9
$FILLETRAD
 40
0.0
  9
$AUNITS
 70
     0
  9
$AUPREC
 70
     0
  9
$MENU
  1
.
  9
$ELEVATION
 40
0.0
  9
$PELEVATION
 40
0.0
  9
$THICKNESS
 40
0.0
  9
$LIMCHECK
 70
     0
  9
$CHAMFERA
 40
0.0
  9
$CHAMFERB
 40
0.0
  9
$CHAMFERC
 40
0.0
  9
$CHAMFERD
 40
0.0
  9
$SKPOLY
 70
     0
  9
$TDCREATE
 40
2459866.618885729
  9
$TDUCREATE
 40
2459866.243885729
  9
$TDUPDATE
 40
2459866.618885776
  9
$TDUUPDATE
 40
2459866.243885776
  9
$TDINDWG
 40
0.0000000116
  9
$TDUSRTIMER
 40
0.0000000116
  9
$USRTIMER
 70
     1
  9
$ANGBASE
 50
0.0
  9
$ANGDIR
 70
     0
  9
$PDMODE
 70
     0
  9
$PDSIZE
 40
0.0
  9
$PLINEWID
 40
0.0
  9
$SPLFRAME
 70
     0
  9
$SPLINETYPE
 70
     6
  9
$SPLINESEGS
 70
     8
  9
$HANDSEED
  5
9A
  9
$SURFTAB1
 70
     6
  9
$SURFTAB2
 70
     6
  9
$SURFTYPE
 70
     6
  9
$SURFU
 70
     6
  9
$SURFV
 70
     6
  9
$UCSBASE
  2

  9
$UCSNAME
  2

  9
$UCSORG
 10
0.0
 20
0.0
 30
0.0
  9
$UCSXDIR
 10
1.0
 20
0.0
 30
0.0
  9
$UCSYDIR
 10
0.0
 20
1.0
 30
0.0
  9
$UCSORTHOREF
  2

  9
$UCSORTHOVIEW
 70
     0
  9
$UCSORGTOP
 10
0.0
 20
0.0
 30
0.0
  9
$UCSORGBOTTOM
 10
0.0
 20
0.0
 30
0.0
  9
$UCSORGLEFT
 10
0.0
 20
0.0
 30
0.0
  9
$UCSORGRIGHT
 10
0.0
 20
0.0
 30
0.0
  9
$UCSORGFRONT
 10
0.0
 20
0.0
 30
0.0
  9
$UCSORGBACK
 10
0.0
 20
0.0
 30
0.0
  9
$PUCSBASE
  2

  9
$PUCSNAME
  2

  9
$PUCSORG
 10
0.0
 20
0.0
 30
0.0
  9
$PUCSXDIR
 10
1.0
 20
0.0
 30
0.0
  9
$PUCSYDIR
 10
0.0
 20
1.0
 30
0.0
  9
$PUCSORTHOREF
  2

  9
$PUCSORTHOVIEW
 70
     0
  9
$PUCSORGTOP
 10
0.0
 20
0.0
 30
0.0
  9
$PUCSORGBOTTOM
 10
0.0
 20
0.0
 30
0.0
  9
$PUCSORGLEFT
 10
0.0
 20
0.0
 30
0.0
  9
$PUCSORGRIGHT
 10
0.0
 20
0.0
 30
0.0
  9
$PUCSORGFRONT
 10
0.0
 20
0.0
 30
0.0
  9
$PUCSORGBACK
 10
0.0
 20
0.0
 30
0.0
  9
$USERI1
 70
     0
  9
$USERI2
 70
     0
  9
$USERI3
 70
     0
  9
$USERI4
 70
     0
  9
$USERI5
 70
     0
  9
$USERR1
 40
0.0
  9
$USERR2
 40
0.0
  9
$USERR3
 40
0.0
  9
$USERR4
 40
0.0
  9
$USERR5
 40
0.0
  9
$WORLDVIEW
 70
     1
  9
$SHADEDGE
 70
     3
  9
$SHADEDIF
 70
    70
  9
$TILEMODE
 70
     1
  9
$MAXACTVP
 70
    64
  9
$PINSBASE
 10
0.0
 20
0.0
 30
0.0
  9
$PLIMCHECK
 70
     0
  9
$PEXTMIN
 10
1.000000000000000E+20
 20
1.000000000000000E+20
 30
1.000000000000000E+20
  9
$PEXTMAX
 10
-1.000000000000000E+20
 20
-1.000000000000000E+20
 30
-1.000000000000000E+20
  9
$PLIMMIN
 10
0.0
 20
0.0
  9
$PLIMMAX
 10
420.0
 20
297.0
  9
$UNITMODE
 70
     0
  9
$VISRETAIN
 70
     1
  9
$PLINEGEN
 70
     0
  9
$PSLTSCALE
 70
     1
  9
$TREEDEPTH
 70
  3020
  9
$CMLSTYLE
  2
Standard
  9
$CMLJUST
 70
     0
  9
$CMLSCALE
 40
20.0
  9
$PROXYGRAPHICS
 70
     1
  9
$MEASUREMENT
 70
     1
  9
$CELWEIGHT
370
    -1
  9
$ENDCAPS
280
     0
  9
$JOINSTYLE
280
     0
  9
$LWDISPLAY
290
     0
  9
$INSUNITS
 70
     4
  9
$HYPERLINKBASE
  1

  9
$STYLESHEET
  1

  9
$XEDIT
290
     1
  9
$CEPSNTYPE
380
     0
  9
$PSTYLEMODE
290
     1
  9
$FINGERPRINTGUID
  2
{f98f5a7f-ec32-44e8-9478-03ad565223c9}
  9
$VERSIONGUID
  2
{FAEB1C32-E019-11D5-929B-00C0DF256EC4}
  9
$EXTNAMES
290
     1
  9
$PSVPSCALE
 40
0.0
  9
$OLESTARTUP
290
     0
  9
$SORTENTS
280
   127
  9
$INDEXCTL
280
     0
  9
$HIDETEXT
280
     1
  9
$XCLIPFRAME
280
     2
  9
$HALOGAP
280
     0
  9
$OBSCOLOR
 70
   257
  9
$OBSLTYPE
280
     0
  9
$INTERSECTIONDISPLAY
280
     0
  9
$INTERSECTIONCOLOR
 70
   257
  9
$DIMASSOC
280
     2
  9
$PROJECTNAME
  1

  9
$CAMERADISPLAY
290
     0
  9
$LENSLENGTH
 40
50.0
  9
$CAMERAHEIGHT
 40
0.0
  9
$STEPSPERSEC
 40
2.0
  9
$STEPSIZE
 40
6.0
  9
$3DDWFPREC
 40
2.0
  9
$PSOLWIDTH
 40
5.0
  9
$PSOLHEIGHT
 40
80.0
  9
$LOFTANG1
 40
1.570796326794897
  9
$LOFTANG2
 40
1.570796326794897
  9
$LOFTMAG1
 40
0.0
  9
$LOFTMAG2
 40
0.0
  9
$LOFTPARAM
 70
     7
  9
$LOFTNORMALS
280
     1
  9
$LATITUDE
 40
37.795
  9
$LONGITUDE
 40
-122.394
  9
$NORTHDIRECTION
 40
0.0
  9
$TIMEZONE
 70
 -8000
  9
$LIGHTGLYPHDISPLAY
280
     1
  9
$TILEMODELIGHTSYNCH
280
     1
  9
$CMATERIAL
347
44
  9
$SOLIDHIST
280
     0
  9
$SHOWHIST
280
     1
  9
$DWFFRAME
280
     2
  9
$DGNFRAME
280
     2
  9
$REALWORLDSCALE
290
     1
  9
$INTERFERECOLOR
 62
   256
  9
$CSHADOW
280
     0
  9
$SHADOWPLANELOCATION
 40
0.0
  0
ENDSEC
  0
SECTION
  2
CLASSES
  0
CLASS
  1
ACDBDICTIONARYWDFLT
  2
AcDbDictionaryWithDefault
  3
ObjectDBX Classes
 90
        0
 91
        3
280
     0
281
     0
  0
CLASS
  1
VISUALSTYLE
  2
AcDbVisualStyle
  3
ObjectDBX Classes
 90
     4095
 91
        3
280
     0
281
     0
  0
CLASS
  1
MATERIAL
  2
AcDbMaterial
  3
ObjectDBX Classes
 90
     1153
 91
        3
280
     0
281
     0
  0
CLASS
  1
SCALE
  2
AcDbScale
  3
ObjectDBX Classes
 90
     1153
 91
        3
280
     0
281
     0
  0
CLASS
  1
TABLESTYLE
  2
AcDbTableStyle
  3
ObjectDBX Classes
 90
     4095
 91
        3
280
     0
281
     0
  0
CLASS
  1
MLEADERSTYLE
  2
AcDbMLeaderStyle
  3
ACDB_MLEADERSTYLE_CLASS
 90
     4095
 91
        3
280
     0
281
     0
  0
CLASS
  1
SUN
  2
AcDbSun
  3
SCENEOE
 90
     1153
 91
        3
280
     0
281
     0
  0
CLASS
  1
DICTIONARYVAR
  2
AcDbDictionaryVar
  3
ObjectDBX Classes
 90
        0
 91
        3
280
     0
281
     0
  0
CLASS
  1
CELLSTYLEMAP
  2
AcDbCellStyleMap
  3
ObjectDBX Classes
 90
     1152
 91
        3
280
     0
281
     0
  0
ENDSEC
  0
SECTION
  2
TABLES
  0
TABLE
  2
VPORT
  5
8
330
0
100
AcDbSymbolTable
 70
     1
  0
VPORT
  5
29
330
8
100
AcDbSymbolTableRecord
100
AcDbViewportTableRecord
  2
*Active
 70
     0
 10
0.0
 20
0.0
 11
1.0
 21
1.0
 12
151.4998911674896
 22
108.0008027704874
 13
0.0
 23
0.0
 14
10.0
 24
10.0
 15
10.0
 25
10.0
 16
0.0
 26
0.0
 36
1.0
 17
0.0
 27
0.0
 37
0.0
 40
237.6017660950723
 41
1.402766343222857
 42
50.0
 43
0.0
 44
0.0
 50
0.0
 51
0.0
 71
     0
 72
 10000
 73
     1
 74
     3
 75
     0
 76
     0
 77
     0
 78
     0
281
     0
 65
     1
110
0.0
120
0.0
130
0.0
111
1.0
121
0.0
131
0.0
112
0.0
122
1.0
132
0.0
 79
     0
146
0.0
348
2F
 60
     3
 61
     5
292
     1
282
     1
141
0.0
142
0.0
 63
   250
361
5D
  0
ENDTAB
  0
TABLE
  2
LTYPE
  5
5
330
0
100
AcDbSymbolTable
 70
     2
  0
LTYPE
  5
14
330
5
100
AcDbSymbolTableRecord
100
AcDbLinetypeTableRecord
  2
ByBlock
 70
     0
  3

 72
    65
 73
     0
 40
0.0
  0
LTYPE
  5
15
330
5
100
AcDbSymbolTableRecord
100
AcDbLinetypeTableRecord
  2
ByLayer
 70
     0
  3

 72
    65
 73
     0
 40
0.0
  0
LTYPE
  5
16
330
5
100
AcDbSymbolTableRecord
100
AcDbLinetypeTableRecord
  2
Continuous
 70
     0
  3
Solid line
 72
    65
 73
     0
 40
0.0
  0
LTYPE
  5
5F
330
5
100
AcDbSymbolTableRecord
100
AcDbLinetypeTableRecord
  2
UserDefined01
 70
     0
  3
--------------------------------
 72
    65
 73
     1
 40
0.3527777724795871
 49
0.3527777724795871
 74
     0
  0
ENDTAB
  0
TABLE
  2
LAYER
  5
2
330
0
100
AcDbSymbolTable
 70
     3
  0
LAYER
  5
10
330
2
100
AcDbSymbolTableRecord
100
AcDbLayerTableRecord
  2
0
 70
     0
 62
     7
  6
Continuous
370
    -3
390
F
347
46
348
0
  0
LAYER
  5
60
330
2
100
AcDbSymbolTableRecord
100
AcDbLayerTableRecord
  2
外枠
 70
     0
 62
     7
  6
Continuous
370
    -3
390
F
347
46
348
0
  0
LAYER
  5
61
330
2
100
AcDbSymbolTableRecord
100
AcDbLayerTableRecord
  2
ISS138金台
 70
     0
 62
     7
  6
Continuous
370
    -3
390
F
347
46
348
0
  0
ENDTAB
  0
TABLE
  2
STYLE
  5
3
330
0
100
AcDbSymbolTable
 70
     2
  0
STYLE
  5
11
330
3
100
AcDbSymbolTableRecord
100
AcDbTextStyleTableRecord
  2
Standard
 70
     0
 40
0.0
 41
1.0
 50
0.0
 71
     0
 42
2.5
  3

  4

  0
STYLE
  5
5E
330
3
100
AcDbSymbolTableRecord
100
AcDbTextStyleTableRecord
  2
MS Gothic
 70
     0
 40
1.0
 41
1.0
 50
0.0
 71
     0
 42
2.5
  3
msgothic.ttc
  4

1001
ACAD
1000
MS Gothic
1071
    32817
  0
ENDTAB
  0
TABLE
  2
VIEW
  5
6
330
0
100
AcDbSymbolTable
 70
     0
  0
ENDTAB
  0
TABLE
  2
UCS
  5
7
330
0
100
AcDbSymbolTable
 70
     0
  0
ENDTAB
  0
TABLE
  2
APPID
  5
9
330
0
100
AcDbSymbolTable
 70
     1
  0
APPID
  5
12
330
9
100
AcDbSymbolTableRecord
100
AcDbRegAppTableRecord
  2
ACAD
 70
     0
  0
ENDTAB
  0
TABLE
  2
DIMSTYLE
  5
A
330
0
100
AcDbSymbolTable
 70
     1
100
AcDbDimStyleTable
  0
DIMSTYLE
105
27
330
A
100
AcDbSymbolTableRecord
100
AcDbDimStyleTableRecord
  2
ISO-25
 70
     0
 41
2.5
 42
0.625
 43
3.75
 44
1.25
 73
     0
 74
     0
 77
     1
 78
     8
140
2.5
141
2.5
143
0.03937007874016
147
0.625
171
     3
172
     1
178
     0
271
     2
272
     2
274
     3
278
    44
283
     0
284
     8
340
11
  0
ENDTAB
  0
TABLE
  2
BLOCK_RECORD
  5
1
330
0
100
AcDbSymbolTable
 70
     1
  0
BLOCK_RECORD
  5
1F
330
1
100
AcDbSymbolTableRecord
100
AcDbBlockTableRecord
  2
*Model_Space
340
22
 70
     0
280
     1
281
     0
  0
BLOCK_RECORD
  5
1B
330
1
100
AcDbSymbolTableRecord
100
AcDbBlockTableRecord
  2
*Paper_Space
340
1E
 70
     0
280
     1
281
     0
  0
BLOCK_RECORD
  5
23
330
1
100
AcDbSymbolTableRecord
100
AcDbBlockTableRecord
  2
*Paper_Space0
340
26
 70
     0
280
     1
281
     0
  0
ENDTAB
  0
ENDSEC
  0
SECTION
  2
BLOCKS
  0
BLOCK
  5
20
330
1F
100
AcDbEntity
  8
0
100
AcDbBlockBegin
  2
*Model_Space
 70
     0
 10
0.0
 20
0.0
 30
0.0
  3
*Model_Space
  1

  0
ENDBLK
  5
21
330
1F
100
AcDbEntity
  8
0
100
AcDbBlockEnd
  0
BLOCK
  5
1C
330
1B
100
AcDbEntity
 67
     1
  8
0
100
AcDbBlockBegin
  2
*Paper_Space
 70
     0
 10
0.0
 20
0.0
 30
0.0
  3
*Paper_Space
  1

  0
ENDBLK
  5
1D
330
1B
100
AcDbEntity
 67
     1
  8
0
100
AcDbBlockEnd
  0
BLOCK
  5
24
330
23
100
AcDbEntity
  8
0
100
AcDbBlockBegin
  2
*Paper_Space0
 70
     0
 10
0.0
 20
0.0
 30
0.0
  3
*Paper_Space0
  1

  0
ENDBLK
  5
25
330
23
100
AcDbEntity
  8
0
100
AcDbBlockEnd
  0
ENDSEC
  0
SECTION
  2
ENTITIES
  0
LWPOLYLINE
  5
62
330
1F
100
AcDbEntity
  8
外枠
  6
Continuous
 62
   250
420
  2367521
370
   100
100
AcDbPolyline
 90
        5
 70
     0
 43
0.0
 10
281.9999662644599
 20
13.29407825637392
 10
20.99981607051935
 20
13.29407825637392
 10
20.99981607051935
 20
193.0018900389566
 10
281.9999662644599
 20
193.0018900389566
 10
281.9999662644599
 20
13.29407825637392
  0
LINE
  5
63
330
1F
100
AcDbEntity
  8
外枠
  6
Continuous
 62
   250
420
  2367521
370
    25
100
AcDbLine
 10
223.3097080177524
 20
174.0786160074276
 30
0.0
 11
281.9999232007669
 21
174.0786160074276
 31
0.0
  0
LINE
  5
64
330
1F
100
AcDbEntity
  8
外枠
  6
Continuous
 62
   250
420
  2367521
370
    25
100
AcDbLine
 10
223.3097080177524
 20
50.37109023844297
 30
0.0
 11
281.9999232007669
 21
50.37109023844297
 31
0.0
  0
LINE
  5
65
330
1F
100
AcDbEntity
  8
外枠
  6
Continuous
 62
   250
420
  2367521
370
    25
100
AcDbLine
 10
223.3097080177524
 20
36.25997933925949
 30
0.0
 11
281.9999232007669
 21
36.25997933925949
 31
0.0
  0
LINE
  5
66
330
1F
100
AcDbEntity
  8
外枠
  6
Continuous
 62
   250
420
  2367521
370
    50
100
AcDbLine
 10
223.0158413772006
 20
193.3637327187979
 30
0.0
 11
223.0158413772006
 21
13.29396655992039
 31
0.0
  0
TEXT
  5
67
330
1F
100
AcDbEntity
  8
外枠
  6
Continuous
 62
   250
420
  2367521
100
AcDbText
 10
224.7190965599536
 20
186.6888051931772
 30
0.0
 40
2.688166626294454
  1
品名：
 41
0.974166170756022
  7
MS Gothic
100
AcDbText
  0
TEXT
  5
68
330
1F
100
AcDbEntity
  8
外枠
  6
Continuous
 62
   250
420
  2367521
100
AcDbText
 10
224.7190965599536
 20
168.1080059455944
 30
0.0
 40
2.688166626294454
  1
仕様：
 41
0.9978878657023111
  7
MS Gothic
100
AcDbText
  0
TEXT
  5
69
330
1F
100
AcDbEntity
  8
外枠
  6
Continuous
 62
   250
420
  2367521
100
AcDbText
 10
224.7190965599536
 20
44.16660664327048
 30
0.0
 40
2.688166626294454
  1
縮尺：
 41
0.9939999262491861
  7
MS Gothic
100
AcDbText
  0
TEXT
  5
6A
330
1F
100
AcDbEntity
  8
外枠
  6
Continuous
 62
   250
420
  2367521
100
AcDbText
 10
250.2379519709696
 20
40.59738467878129
 30
0.0
 40
2.150533301035563
  1
1/1
 41
1.000003814697266
  7
MS Gothic
100
AcDbText
  0
TEXT
  5
6B
330
1F
100
AcDbEntity
  8
外枠
  6
Continuous
 62
   250
420
  2367521
100
AcDbText
 10
232.7757967427735
 20
181.9845273775436
 30
0.0
 40
2.688166626294454
  1
WH-シングルベースピンレス
 41
1.058561401367187
  7
MS Gothic
100
AcDbText
  0
TEXT
  5
6C
330
1F
100
AcDbEntity
  8
外枠
  6
Continuous
 62
   250
420
  2367521
100
AcDbText
 10
226.1633020978884
 20
24.25683874973963
 30
0.0
 40
2.553758294979732
  1
ヤスダインテリアサプライ株式会社
 41
1.0194908945184
  7
MS Gothic
100
AcDbText
  0
TEXT
  5
6D
330
1F
100
AcDbEntity
  8
外枠
  6
Continuous
 62
   250
420
  2367521
100
AcDbText
 10
227.7635273953072
 20
161.7763665048245
 30
0.0
 40
2.150533301035563
  1
材質
 41
1.028502464294433
  7
MS Gothic
100
AcDbText
  0
TEXT
  5
6E
330
1F
100
AcDbEntity
  8
外枠
  6
Continuous
 62
   250
420
  2367521
100
AcDbText
 10
232.7757967427735
 20
156.199681315683
 30
0.0
 40
2.016124969720841
  1
アルミ押出形材（A6063S-T5）
 41
1.033106825086805
  7
MS Gothic
100
AcDbText
  0
TEXT
  5
6F
330
1F
100
AcDbEntity
  8
外枠
  6
Continuous
 62
   250
420
  2367521
100
AcDbText
 10
232.7757967427735
 20
151.9663480459279
 30
0.0
 40
2.016124969720841
  1
生地シルバー
 41
1.040896352132161
  7
MS Gothic
100
AcDbText
  0
HATCH
  5
70
330
1F
100
AcDbEntity
  8
ISS138金台
  6
Continuous
 62
     7
420
 16777215
370
    50
100
AcDbHatch
 10
0.0
 20
0.0
 30
0.0
210
0.0
220
0.0
230
1.0
  2
SOLID
 70
     1
 71
     0
 91
        1
 92
        3
 72
     0
 73
     1
 93
      113
 10
143.2008823504778
 20
100.8038584510844
 10
135.5145622246225
 20
101.3912364567214
 10
131.7677087279703
 20
101.3894708453113
 10
131.5020703381338
 20
101.1308841351921
 10
131.2276038912468
 20
101.3908811812548
 10
122.0017567431569
 20
101.3912364567214
 10
122.0010569581468
 20
114.7622224314465
 10
122.2698712953368
 20
114.7611566050465
 10
122.2712816312802
 20
115.2522226614464
 10
121.3822855203641
 20
115.2504570500362
 10
121.2856290615835
 20
115.2387221937129
 10
121.190415236516
 20
115.2147680145208
 10
121.0974191916345
 20
115.1797034025528
 10
121.0073945415651
 20
115.1345941842091
 10
120.9211702623967
 20
115.0804631221965
 10
120.8395215006021
 20
115.0184298725314
 10
120.7632126367308
 20
114.9495279638439
 10
120.693040349102
 20
114.8748447543807
 10
120.6297905501116
 20
114.7954353046185
 10
120.5742491521556
 20
114.7123762068804
 10
120.5271913017067
 20
114.6267225216434
 10
120.4894136770842
 20
114.5395616071538
 10
120.4616914247607
 20
114.4519485238885
 10
120.4448104571323
 20
114.3649383323241
 10
120.4395566865949
 20
114.2796291566305
 10
120.4467160255444
 20
114.1970652913612
 10
120.8693431079559
 20
114.2002412387147
 10
120.38744961815
 20
113.0981659751827
 10
120.8675774965458
 20
113.1009866470696
 10
120.4064945363482
 20
112.0363014349237
 10
120.8485325783477
 20
112.0338360385035
 10
120.3878048936167
 20
110.9254088802643
 10
120.8488878538143
 20
110.9261086652744
 10
120.8471222424042
 20
108.8845881745591
 10
116.718562937547
 20
108.8870535709793
 10
116.7175078770702
 20
110.9306949485714
 10
117.1563592057929
 20
110.9444537984624
 10
116.7062144235994
 20
112.0303048156832
 10
117.1591798776798
 20
112.0310153666166
 10
116.7203285489571
 20
113.097810699716
 10
117.1510623715625
 20
113.0981659751827
 10
117.1459485580272
 20
113.22112358442
 10
117.129401334019
 20
113.3387305298109
 10
117.1023788667056
 20
113.4507714928906
 10
117.065850089178
 20
113.5569880915015
 10
117.0207624026807
 20
113.6571542412558
 10
116.9680739743813
 20
113.7510223259192
 10
116.9087429714475
 20
113.8383662611038
 10
116.8437490928934
 20
113.9189491964983
 10
116.7740289740403
 20
113.9925019840222
 10
116.7005623139024
 20
114.058830837057
 10
116.624296513724
 20
114.1176666075222
 10
116.5461789747496
 20
114.1687832110296
 10
116.4671893959934
 20
114.2119330313451
 10
116.3882859446231
 20
114.2468899840808
 10
116.3104160218831
 20
114.2734064530022
 10
116.2345485608643
 20
114.2912563537215
 10
115.3286176527035
 20
114.289146232768
 10
115.3317936000571
 20
113.7620896950021
 10
115.5614415085276
 20
113.7610346345254
 10
115.5568659911539
 20
100.2305945708051
 10
117.3066407281941
 20
100.2305945708051
 10
117.3066407281941
 20
106.0658864516194
 10
117.3102580784002
 20
106.1366723968725
 10
117.3208517468609
 20
106.2040347785377
 10
117.338087989956
 20
106.2679197669988
 10
117.361622298142
 20
106.3282950644862
 10
117.3910993959523
 20
106.3851176073068
 10
117.4261532419971
 20
106.4383658636143
 10
117.4664393267328
 20
106.4880075356389
 10
117.5116023746927
 20
106.5339780278413
 10
117.5613086422567
 20
106.5762665742982
 10
117.6151813221117
 20
106.6148193453935
 10
117.6728974365607
 20
106.6496040433574
 10
117.7340801782905
 20
106.6805991363435
 10
117.7983850377576
 20
106.7077507947357
 10
117.8654675054188
 20
106.7310267207641
 10
117.9349723058072
 20
106.750383850736
 10
118.0065549293795
 20
106.7658006528048
 10
119.5065710133511
 20
106.7658006528048
 10
119.5781536369234
 20
106.750383850736
 10
119.6476799691583
 20
106.7310267207641
 10
119.7147732027426
 20
106.7077507947357
 10
119.7790995940563
 20
106.6806099022667
 10
119.8403146335558
 20
106.6496040433574
 10
119.8980415139279
 20
106.6148193453935
 10
119.9519572574758
 20
106.5762665742982
 10
120.0016958228096
 20
106.5339780278413
 10
120.0468911685392
 20
106.4880075356389
 10
120.0872095510446
 20
106.4383766295375
 10
120.122295694859
 20
106.38512837323
 10
120.1517835585926
 20
106.3282950644862
 10
120.1753393986251
 20
106.2679197669988
 10
120.1925971735667
 20
106.2040347785377
 10
120.2032123738738
 20
106.1366723968725
 10
120.2068297240799
 20
106.0658864516194
 10
120.2068297240799
 20
100.2305945708051
 10
143.2082893056617
 20
100.2305945708051
 10
143.2855563367007
 20
100.2481107279042
 10
143.3520466785841
 20
100.2730984357267
 10
143.4078787564674
 20
100.3044488041794
 10
143.4530956340434
 20
100.3411067727858
 10
143.487815736468
 20
100.3819957492225
 10
143.5121036592803
 20
100.4260499070895
 10
143.5260562957895
 20
100.4721926540636
 10
143.5297597733814
 20
100.5193366318983
 10
143.523300219442
 20
100.5664160141936
 10
143.5067745272802
 20
100.6123649745496
 10
143.4802580583589
 20
100.6560853887964
 10
143.4438369400636
 20
100.6965221964573
 10
143.3976080657037
 20
100.7325880392859
 10
143.3416467967416
 20
100.7632278568053
 10
143.2760392605633
 20
100.7873327589227
 97
        0
 75
     1
 76
     1
 98
        0
  0
LWPOLYLINE
  5
71
330
1F
100
AcDbEntity
  8
ISS138金台
  6
Continuous
 62
     7
420
 16777215
370
    50
100
AcDbPolyline
 90
      114
 70
     0
 43
0.0
 10
143.2008823504778
 20
100.8038584510844
 10
135.5145622246225
 20
101.3912364567214
 10
131.7677087279703
 20
101.3894708453113
 10
131.5020703381338
 20
101.1308841351921
 10
131.2276038912468
 20
101.3908811812548
 10
122.0017567431569
 20
101.3912364567214
 10
122.0010569581468
 20
114.7622224314465
 10
122.2698712953368
 20
114.7611566050465
 10
122.2712816312802
 20
115.2522226614464
 10
121.3822855203641
 20
115.2504570500362
 10
121.2856290615835
 20
115.2387221937129
 10
121.190415236516
 20
115.2147680145208
 10
121.0974191916345
 20
115.1797034025528
 10
121.0073945415651
 20
115.1345941842091
 10
120.9211702623967
 20
115.0804631221965
 10
120.8395215006021
 20
115.0184298725314
 10
120.7632126367308
 20
114.9495279638439
 10
120.693040349102
 20
114.8748447543807
 10
120.6297905501116
 20
114.7954353046185
 10
120.5742491521556
 20
114.7123762068804
 10
120.5271913017067
 20
114.6267225216434
 10
120.4894136770842
 20
114.5395616071538
 10
120.4616914247607
 20
114.4519485238885
 10
120.4448104571323
 20
114.3649383323241
 10
120.4395566865949
 20
114.2796291566305
 10
120.4467160255444
 20
114.1970652913612
 10
120.8693431079559
 20
114.2002412387147
 10
120.38744961815
 20
113.0981659751827
 10
120.8675774965458
 20
113.1009866470696
 10
120.4064945363482
 20
112.0363014349237
 10
120.8485325783477
 20
112.0338360385035
 10
120.3878048936167
 20
110.9254088802643
 10
120.8488878538143
 20
110.9261086652744
 10
120.8471222424042
 20
108.8845881745591
 10
116.718562937547
 20
108.8870535709793
 10
116.7175078770702
 20
110.9306949485714
 10
117.1563592057929
 20
110.9444537984624
 10
116.7062144235994
 20
112.0303048156832
 10
117.1591798776798
 20
112.0310153666166
 10
116.7203285489571
 20
113.097810699716
 10
117.1510623715625
 20
113.0981659751827
 10
117.1459485580272
 20
113.22112358442
 10
117.129401334019
 20
113.3387305298109
 10
117.1023788667056
 20
113.4507714928906
 10
117.065850089178
 20
113.5569880915015
 10
117.0207624026807
 20
113.6571542412558
 10
116.9680739743813
 20
113.7510223259192
 10
116.9087429714475
 20
113.8383662611038
 10
116.8437490928934
 20
113.9189491964983
 10
116.7740289740403
 20
113.9925019840222
 10
116.7005623139024
 20
114.058830837057
 10
116.624296513724
 20
114.1176666075222
 10
116.5461789747496
 20
114.1687832110296
 10
116.4671893959934
 20
114.2119330313451
 10
116.3882859446231
 20
114.2468899840808
 10
116.3104160218831
 20
114.2734064530022
 10
116.2345485608643
 20
114.2912563537215
 10
115.3286176527035
 20
114.289146232768
 10
115.3317936000571
 20
113.7620896950021
 10
115.5614415085276
 20
113.7610346345254
 10
115.5568659911539
 20
100.2305945708051
 10
117.3066407281941
 20
100.2305945708051
 10
117.3066407281941
 20
106.0658864516194
 10
117.3102580784002
 20
106.1366723968725
 10
117.3208517468609
 20
106.2040347785377
 10
117.338087989956
 20
106.2679197669988
 10
117.361622298142
 20
106.3282950644862
 10
117.3910993959523
 20
106.3851176073068
 10
117.4261532419971
 20
106.4383658636143
 10
117.4664393267328
 20
106.4880075356389
 10
117.5116023746927
 20
106.5339780278413
 10
117.5613086422567
 20
106.5762665742982
 10
117.6151813221117
 20
106.6148193453935
 10
117.6728974365607
 20
106.6496040433574
 10
117.7340801782905
 20
106.6805991363435
 10
117.7983850377576
 20
106.7077507947357
 10
117.8654675054188
 20
106.7310267207641
 10
117.9349723058072
 20
106.750383850736
 10
118.0065549293795
 20
106.7658006528048
 10
119.5065710133511
 20
106.7658006528048
 10
119.5781536369234
 20
106.750383850736
 10
119.6476799691583
 20
106.7310267207641
 10
119.7147732027426
 20
106.7077507947357
 10
119.7790995940563
 20
106.6806099022667
 10
119.8403146335558
 20
106.6496040433574
 10
119.8980415139279
 20
106.6148193453935
 10
119.9519572574758
 20
106.5762665742982
 10
120.0016958228096
 20
106.5339780278413
 10
120.0468911685392
 20
106.4880075356389
 10
120.0872095510446
 20
106.4383766295375
 10
120.122295694859
 20
106.38512837323
 10
120.1517835585926
 20
106.3282950644862
 10
120.1753393986251
 20
106.2679197669988
 10
120.1925971735667
 20
106.2040347785377
 10
120.2032123738738
 20
106.1366723968725
 10
120.2068297240799
 20
106.0658864516194
 10
120.2068297240799
 20
100.2305945708051
 10
143.2082893056617
 20
100.2305945708051
 10
143.2855563367007
 20
100.2481107279042
 10
143.3520466785841
 20
100.2730984357267
 10
143.4078787564674
 20
100.3044488041794
 10
143.4530956340434
 20
100.3411067727858
 10
143.487815736468
 20
100.3819957492225
 10
143.5121036592803
 20
100.4260499070895
 10
143.5260562957895
 20
100.4721926540636
 10
143.5297597733814
 20
100.5193366318983
 10
143.523300219442
 20
100.5664160141936
 10
143.5067745272802
 20
100.6123649745496
 10
143.4802580583589
 20
100.6560853887964
 10
143.4438369400636
 20
100.6965221964573
 10
143.3976080657037
 20
100.7325880392859
 10
143.3416467967416
 20
100.7632278568053
 10
143.2760392605633
 20
100.7873327589227
 10
143.2008823504778
 20
100.8038584510844
  0
LWPOLYLINE
  5
72
330
1F
100
AcDbEntity
  8
ISS138金台
  6
Continuous
 62
   250
420
  2367521
370
    25
100
AcDbPolyline
 90
      114
 70
     0
 43
0.0
 10
143.2008823504778
 20
100.8038584510844
 10
135.5145622246225
 20
101.3912364567214
 10
131.7677087279703
 20
101.3894708453113
 10
131.5020703381338
 20
101.1308841351921
 10
131.2276038912468
 20
101.3908811812548
 10
122.0017567431569
 20
101.3912364567214
 10
122.0010569581468
 20
114.7622224314465
 10
122.2698712953368
 20
114.7611566050465
 10
122.2712816312802
 20
115.2522226614464
 10
121.3822855203641
 20
115.2504570500362
 10
121.2856290615835
 20
115.2387221937129
 10
121.190415236516
 20
115.2147680145208
 10
121.0974191916345
 20
115.1797034025528
 10
121.0073945415651
 20
115.1345941842091
 10
120.9211702623967
 20
115.0804631221965
 10
120.8395215006021
 20
115.0184298725314
 10
120.7632126367308
 20
114.9495279638439
 10
120.693040349102
 20
114.8748447543807
 10
120.6297905501116
 20
114.7954353046185
 10
120.5742491521556
 20
114.7123762068804
 10
120.5271913017067
 20
114.6267225216434
 10
120.4894136770842
 20
114.5395616071538
 10
120.4616914247607
 20
114.4519485238885
 10
120.4448104571323
 20
114.3649383323241
 10
120.4395566865949
 20
114.2796291566305
 10
120.4467160255444
 20
114.1970652913612
 10
120.8693431079559
 20
114.2002412387147
 10
120.38744961815
 20
113.0981659751827
 10
120.8675774965458
 20
113.1009866470696
 10
120.4064945363482
 20
112.0363014349237
 10
120.8485325783477
 20
112.0338360385035
 10
120.3878048936167
 20
110.9254088802643
 10
120.8488878538143
 20
110.9261086652744
 10
120.8471222424042
 20
108.8845881745591
 10
116.718562937547
 20
108.8870535709793
 10
116.7175078770702
 20
110.9306949485714
 10
117.1563592057929
 20
110.9444537984624
 10
116.7062144235994
 20
112.0303048156832
 10
117.1591798776798
 20
112.0310153666166
 10
116.7203285489571
 20
113.097810699716
 10
117.1510623715625
 20
113.0981659751827
 10
117.1459485580272
 20
113.22112358442
 10
117.129401334019
 20
113.3387305298109
 10
117.1023788667056
 20
113.4507714928906
 10
117.065850089178
 20
113.5569880915015
 10
117.0207624026807
 20
113.6571542412558
 10
116.9680739743813
 20
113.7510223259192
 10
116.9087429714475
 20
113.8383662611038
 10
116.8437490928934
 20
113.9189491964983
 10
116.7740289740403
 20
113.9925019840222
 10
116.7005623139024
 20
114.058830837057
 10
116.624296513724
 20
114.1176666075222
 10
116.5461789747496
 20
114.1687832110296
 10
116.4671893959934
 20
114.2119330313451
 10
116.3882859446231
 20
114.2468899840808
 10
116.3104160218831
 20
114.2734064530022
 10
116.2345485608643
 20
114.2912563537215
 10
115.3286176527035
 20
114.289146232768
 10
115.3317936000571
 20
113.7620896950021
 10
115.5614415085276
 20
113.7610346345254
 10
115.5568659911539
 20
100.2305945708051
 10
117.3066407281941
 20
100.2305945708051
 10
117.3066407281941
 20
106.0658864516194
 10
117.3102580784002
 20
106.1366723968725
 10
117.3208517468609
 20
106.2040347785377
 10
117.338087989956
 20
106.2679197669988
 10
117.361622298142
 20
106.3282950644862
 10
117.3910993959523
 20
106.3851176073068
 10
117.4261532419971
 20
106.4383658636143
 10
117.4664393267328
 20
106.4880075356389
 10
117.5116023746927
 20
106.5339780278413
 10
117.5613086422567
 20
106.5762665742982
 10
117.6151813221117
 20
106.6148193453935
 10
117.6728974365607
 20
106.6496040433574
 10
117.7340801782905
 20
106.6805991363435
 10
117.7983850377576
 20
106.7077507947357
 10
117.8654675054188
 20
106.7310267207641
 10
117.9349723058072
 20
106.750383850736
 10
118.0065549293795
 20
106.7658006528048
 10
119.5065710133511
 20
106.7658006528048
 10
119.5781536369234
 20
106.750383850736
 10
119.6476799691583
 20
106.7310267207641
 10
119.7147732027426
 20
106.7077507947357
 10
119.7790995940563
 20
106.6806099022667
 10
119.8403146335558
 20
106.6496040433574
 10
119.8980415139279
 20
106.6148193453935
 10
119.9519572574758
 20
106.5762665742982
 10
120.0016958228096
 20
106.5339780278413
 10
120.0468911685392
 20
106.4880075356389
 10
120.0872095510446
 20
106.4383766295375
 10
120.122295694859
 20
106.38512837323
 10
120.1517835585926
 20
106.3282950644862
 10
120.1753393986251
 20
106.2679197669988
 10
120.1925971735667
 20
106.2040347785377
 10
120.2032123738738
 20
106.1366723968725
 10
120.2068297240799
 20
106.0658864516194
 10
120.2068297240799
 20
100.2305945708051
 10
143.2082893056617
 20
100.2305945708051
 10
143.2855563367007
 20
100.2481107279042
 10
143.3520466785841
 20
100.2730984357267
 10
143.4078787564674
 20
100.3044488041794
 10
143.4530956340434
 20
100.3411067727858
 10
143.487815736468
 20
100.3819957492225
 10
143.5121036592803
 20
100.4260499070895
 10
143.5260562957895
 20
100.4721926540636
 10
143.5297597733814
 20
100.5193366318983
 10
143.523300219442
 20
100.5664160141936
 10
143.5067745272802
 20
100.6123649745496
 10
143.4802580583589
 20
100.6560853887964
 10
143.4438369400636
 20
100.6965221964573
 10
143.3976080657037
 20
100.7325880392859
 10
143.3416467967416
 20
100.7632278568053
 10
143.2760392605633
 20
100.7873327589227
 10
143.2008823504778
 20
100.8038584510844
  0
LINE
  5
73
330
1F
100
AcDbEntity
  8
ISS138金台
  6
Continuous
 62
   250
420
  2367521
370
    13
100
AcDbLine
 10
115.2563460100444
 20
121.5681053553554
 30
0.0
 11
115.2563460100444
 21
116.6069956750895
 31
0.0
  0
LINE
  5
74
330
1F
100
AcDbEntity
  8
ISS138金台
  6
Continuous
 62
   250
420
  2367521
370
    13
100
AcDbLine
 10
122.3339500704161
 20
121.5681053553554
 30
0.0
 11
122.3339500704161
 21
116.5851193190813
 31
0.0
  0
LINE
  5
75
330
1F
100
AcDbEntity
  8
ISS138金台
  6
Continuous
 62
   250
420
  2367521
370
    13
100
AcDbLine
 10
122.3339500704161
 20
121.0830251522728
 30
0.0
 11
115.2561737552727
 21
121.0830251522728
 31
0.0
  0
LINE
  5
76
330
1F
100
AcDbEntity
  8
ISS138金台
  6
Continuous
 62
   250
420
  2367521
370
    13
100
AcDbLine
 10
115.4768213519209
 20
99.23081710982741
 30
0.0
 11
115.4768213519209
 21
89.14701739046197
 31
0.0
  0
LINE
  5
77
330
1F
100
AcDbEntity
  8
ISS138金台
  6
Continuous
 62
   250
420
  2367521
370
    13
100
AcDbLine
 10
143.588800096388
 20
89.67617866621973
 30
0.0
 11
115.4766490971492
 21
89.67617866621973
 31
0.0
  0
LINE
  5
78
330
1F
100
AcDbEntity
  8
ISS138金台
  6
Continuous
 62
   250
420
  2367521
370
    13
100
AcDbLine
 10
143.588800096388
 20
99.23081710982741
 30
0.0
 11
143.588800096388
 21
89.14701739046197
 31
0.0
  0
LINE
  5
79
330
1F
100
AcDbEntity
  8
ISS138金台
  6
Continuous
 62
   250
420
  2367521
370
    13
100
AcDbLine
 10
144.5809875814868
 20
100.2305945708051
 30
0.0
 11
149.5861944833127
 21
100.2305945708051
 31
0.0
  0
LINE
  5
7A
330
1F
100
AcDbEntity
  8
ISS138金台
  6
Continuous
 62
   250
420
  2367521
370
    13
100
AcDbLine
 10
149.586022228541
 20
115.2522226614464
 30
0.0
 11
144.6030361922668
 21
115.2522226614464
 31
0.0
  0
LINE
  5
7B
330
1F
100
AcDbEntity
  8
ISS138金台
  6
Continuous
 62
   250
420
  2367521
370
    13
100
AcDbLine
 10
149.1009635573048
 20
100.2305945708051
 30
0.0
 11
149.1009635573048
 21
115.1555662026658
 31
0.0
  0
HATCH
  5
7C
330
1F
100
AcDbEntity
  8
ISS138金台
  6
Continuous
 62
   250
420
  2367521
370
    13
100
AcDbHatch
 10
0.0
 20
0.0
 30
0.0
210
0.0
220
0.0
230
1.0
  2
SOLID
 70
     1
 71
     0
 91
        1
 92
        3
 72
     0
 73
     1
 93
       67
 10
115.2563460100444
 20
120.8330942444324
 10
115.2819366095678
 20
120.8343861552203
 10
115.3067843603882
 20
120.8381757601981
 10
115.3307385395803
 20
120.8443123364406
 10
115.3537022538351
 20
120.8527205224851
 10
115.3755570779968
 20
120.8632495954064
 10
115.3961415232172
 20
120.8757488322792
 10
115.4153694621103
 20
120.8901321057177
 10
115.4330901717508
 20
120.9062486927966
 10
115.4491959929065
 20
120.9239909342836
 10
115.4635469685753
 20
120.9432188731767
 10
115.4760354395249
 20
120.9638033183971
 10
115.4865322146765
 20
120.9856366107124
 10
115.4949188688746
 20
121.0085895590439
 10
115.501055445117
 20
121.0325222063895
 10
115.5048342841716
 20
121.057326893517
 10
115.5061154290363
 20
121.0828636634243
 10
115.5061154290363
 20
121.0828636634243
 10
115.5048342841716
 20
121.108465028871
 10
115.5010446791938
 20
121.1333127796913
 10
115.4949188688746
 20
121.1572884907299
 10
115.4865322146765
 20
121.1802845027544
 10
115.4760354395249
 20
121.2021500928394
 10
115.4635469685753
 20
121.2227668358294
 10
115.4491959929065
 20
121.242016306569
 10
115.4330901717508
 20
121.2597800799025
 10
115.4153694621103
 20
121.2759181988279
 10
115.3961415232172
 20
121.2903014722663
 10
115.3755570779968
 20
121.3028222409856
 10
115.3537130197583
 20
121.3133405479837
 10
115.3307493055036
 20
121.3217487340282
 10
115.3067843603882
 20
121.3279068421171
 10
115.2819366095678
 20
121.3316856811717
 10
115.2563460100444
 20
121.3329775919596
 10
115.2563460100444
 20
121.3329775919596
 10
115.2308092401371
 20
121.3316856811717
 10
115.2060153189329
 20
121.3279068421171
 10
115.1820826715872
 20
121.321737968105
 10
115.1591189573325
 20
121.3133405479837
 10
115.1372964309404
 20
121.3028222409856
 10
115.1167012197968
 20
121.2903014722663
 10
115.0974732809037
 20
121.2759181988279
 10
115.0797418053399
 20
121.2597800799025
 10
115.0636144523378
 20
121.2420270724922
 10
115.0492311788993
 20
121.2227668358294
 10
115.0367211761032
 20
121.2021500928394
 10
115.0262028691052
 20
121.1802845027544
 10
115.0178054489839
 20
121.1572992566532
 10
115.011647340895
 20
121.1333127796913
 10
115.0078685018404
 20
121.108465028871
 10
115.0065765910525
 20
121.0828636634243
 10
115.0065765910525
 20
121.0828636634243
 10
115.0078685018404
 20
121.057326893517
 10
115.011647340895
 20
121.0325329723128
 10
115.0178054489839
 20
121.0085787931206
 10
115.0262028691052
 20
120.9856473766356
 10
115.0367211761032
 20
120.9638033183971
 10
115.0492311788993
 20
120.9432188731767
 10
115.0636144523378
 20
120.9239909342836
 10
115.0797418053399
 20
120.9062486927966
 10
115.0974732809037
 20
120.8901321057177
 10
115.1167012197968
 20
120.8757488322792
 10
115.1372964309404
 20
120.8632388294831
 10
115.1591297232557
 20
120.8527205224851
 10
115.182071905664
 20
120.8443231023638
 10
115.2060153189329
 20
120.8381649942748
 10
115.2308092401371
 20
120.8343861552203
 97
        0
 75
     1
 76
     1
 98
        0
  0
LWPOLYLINE
  5
7D
330
1F
100
AcDbEntity
  8
ISS138金台
  6
Continuous
 62
   250
420
  2367521
370
    13
100
AcDbPolyline
 90
       68
 70
     0
 43
0.0
 10
115.2563460100444
 20
120.8330942444324
 10
115.2819366095678
 20
120.8343861552203
 10
115.3067843603882
 20
120.8381757601981
 10
115.3307385395803
 20
120.8443123364406
 10
115.3537022538351
 20
120.8527205224851
 10
115.3755570779968
 20
120.8632495954064
 10
115.3961415232172
 20
120.8757488322792
 10
115.4153694621103
 20
120.8901321057177
 10
115.4330901717508
 20
120.9062486927966
 10
115.4491959929065
 20
120.9239909342836
 10
115.4635469685753
 20
120.9432188731767
 10
115.4760354395249
 20
120.9638033183971
 10
115.4865322146765
 20
120.9856366107124
 10
115.4949188688746
 20
121.0085895590439
 10
115.501055445117
 20
121.0325222063895
 10
115.5048342841716
 20
121.057326893517
 10
115.5061154290363
 20
121.0828636634243
 10
115.5061154290363
 20
121.0828636634243
 10
115.5048342841716
 20
121.108465028871
 10
115.5010446791938
 20
121.1333127796913
 10
115.4949188688746
 20
121.1572884907299
 10
115.4865322146765
 20
121.1802845027544
 10
115.4760354395249
 20
121.2021500928394
 10
115.4635469685753
 20
121.2227668358294
 10
115.4491959929065
 20
121.242016306569
 10
115.4330901717508
 20
121.2597800799025
 10
115.4153694621103
 20
121.2759181988279
 10
115.3961415232172
 20
121.2903014722663
 10
115.3755570779968
 20
121.3028222409856
 10
115.3537130197583
 20
121.3133405479837
 10
115.3307493055036
 20
121.3217487340282
 10
115.3067843603882
 20
121.3279068421171
 10
115.2819366095678
 20
121.3316856811717
 10
115.2563460100444
 20
121.3329775919596
 10
115.2563460100444
 20
121.3329775919596
 10
115.2308092401371
 20
121.3316856811717
 10
115.2060153189329
 20
121.3279068421171
 10
115.1820826715872
 20
121.321737968105
 10
115.1591189573325
 20
121.3133405479837
 10
115.1372964309404
 20
121.3028222409856
 10
115.1167012197968
 20
121.2903014722663
 10
115.0974732809037
 20
121.2759181988279
 10
115.0797418053399
 20
121.2597800799025
 10
115.0636144523378
 20
121.2420270724922
 10
115.0492311788993
 20
121.2227668358294
 10
115.0367211761032
 20
121.2021500928394
 10
115.0262028691052
 20
121.1802845027544
 10
115.0178054489839
 20
121.1572992566532
 10
115.011647340895
 20
121.1333127796913
 10
115.0078685018404
 20
121.108465028871
 10
115.0065765910525
 20
121.0828636634243
 10
115.0065765910525
 20
121.0828636634243
 10
115.0078685018404
 20
121.057326893517
 10
115.011647340895
 20
121.0325329723128
 10
115.0178054489839
 20
121.0085787931206
 10
115.0262028691052
 20
120.9856473766356
 10
115.0367211761032
 20
120.9638033183971
 10
115.0492311788993
 20
120.9432188731767
 10
115.0636144523378
 20
120.9239909342836
 10
115.0797418053399
 20
120.9062486927966
 10
115.0974732809037
 20
120.8901321057177
 10
115.1167012197968
 20
120.8757488322792
 10
115.1372964309404
 20
120.8632388294831
 10
115.1591297232557
 20
120.8527205224851
 10
115.182071905664
 20
120.8443231023638
 10
115.2060153189329
 20
120.8381649942748
 10
115.2308092401371
 20
120.8343861552203
 10
115.2563460100444
 20
120.8330942444324
  0
HATCH
  5
7E
330
1F
100
AcDbEntity
  8
ISS138金台
  6
Continuous
 62
   250
420
  2367521
370
    13
100
AcDbHatch
 10
0.0
 20
0.0
 30
0.0
210
0.0
220
0.0
230
1.0
  2
SOLID
 70
     1
 71
     0
 91
        1
 92
        3
 72
     0
 73
     1
 93
       67
 10
122.3339500704161
 20
120.8330942444324
 10
122.3595406699395
 20
120.8343861552203
 10
122.3843884207599
 20
120.8381757601981
 10
122.4083533658753
 20
120.8443123364406
 10
122.4313063142068
 20
120.8527205224851
 10
122.4531503724453
 20
120.8632495954064
 10
122.4737455835889
 20
120.8757488322792
 10
122.492973522482
 20
120.8901321057177
 10
122.5106942321226
 20
120.9062486927966
 10
122.5268000532782
 20
120.9239909342836
 10
122.5411510289471
 20
120.9432188731767
 10
122.5536394998966
 20
120.9638033183971
 10
122.5641362750482
 20
120.9856366107124
 10
122.5725229292463
 20
121.0085895590439
 10
122.5786595054888
 20
121.0325222063895
 10
122.5824383445433
 20
121.057326893517
 10
122.583719489408
 20
121.0828636634243
 10
122.583719489408
 20
121.0828636634243
 10
122.5824383445433
 20
121.108465028871
 10
122.5786487395655
 20
121.1333127796913
 10
122.5725121633231
 20
121.1572884907299
 10
122.5641362750482
 20
121.1802845027544
 10
122.5536394998966
 20
121.2021500928394
 10
122.5411510289471
 20
121.2227668358294
 10
122.526789287355
 20
121.242016306569
 10
122.5106942321226
 20
121.2597800799025
 10
122.492973522482
 20
121.2759181988279
 10
122.4737455835889
 20
121.2903014722663
 10
122.4531611383686
 20
121.3028222409856
 10
122.43131708013
 20
121.3133405479837
 10
122.4083533658753
 20
121.3217487340282
 10
122.3843884207599
 20
121.3279068421171
 10
122.3595406699395
 20
121.3316856811717
 10
122.3339500704161
 20
121.3329775919596
 10
122.3339500704161
 20
121.3329775919596
 10
122.3084240664321
 20
121.3316856811717
 10
122.2836193793046
 20
121.3279068421171
 10
122.2596867319589
 20
121.321737968105
 10
122.2367230177042
 20
121.3133405479837
 10
122.2149004913121
 20
121.3028222409856
 10
122.1943052801685
 20
121.2903014722663
 10
122.1750773412754
 20
121.2759181988279
 10
122.1573458657116
 20
121.2597800799025
 10
122.1412077467863
 20
121.2420270724922
 10
122.126835239271
 20
121.2227668358294
 10
122.1143252364749
 20
121.2021500928394
 10
122.1038069294769
 20
121.1802845027544
 10
122.0954095093556
 20
121.1572992566532
 10
122.0892514012667
 20
121.1333127796913
 10
122.0854725622121
 20
121.108465028871
 10
122.0841806514242
 20
121.0828636634243
 10
122.0841806514242
 20
121.0828636634243
 10
122.0854725622121
 20
121.057326893517
 10
122.0892514012667
 20
121.0325329723128
 10
122.0954095093556
 20
121.0085787931206
 10
122.1038069294769
 20
120.9856473766356
 10
122.1143252364749
 20
120.9638033183971
 10
122.126835239271
 20
120.9432188731767
 10
122.1412185127095
 20
120.9239909342836
 10
122.1573458657116
 20
120.9062486927966
 10
122.1750773412754
 20
120.8901321057177
 10
122.1943052801685
 20
120.8757488322792
 10
122.2149004913121
 20
120.8632388294831
 10
122.2367337836274
 20
120.8527205224851
 10
122.2596759660357
 20
120.8443231023638
 10
122.2836193793046
 20
120.8381649942748
 10
122.3084133005088
 20
120.8343861552203
 97
        0
 75
     1
 76
     1
 98
        0
  0
LWPOLYLINE
  5
7F
330
1F
100
AcDbEntity
  8
ISS138金台
  6
Continuous
 62
   250
420
  2367521
370
    13
100
AcDbPolyline
 90
       68
 70
     0
 43
0.0
 10
122.3339500704161
 20
120.8330942444324
 10
122.3595406699395
 20
120.8343861552203
 10
122.3843884207599
 20
120.8381757601981
 10
122.4083533658753
 20
120.8443123364406
 10
122.4313063142068
 20
120.8527205224851
 10
122.4531503724453
 20
120.8632495954064
 10
122.4737455835889
 20
120.8757488322792
 10
122.492973522482
 20
120.8901321057177
 10
122.5106942321226
 20
120.9062486927966
 10
122.5268000532782
 20
120.9239909342836
 10
122.5411510289471
 20
120.9432188731767
 10
122.5536394998966
 20
120.9638033183971
 10
122.5641362750482
 20
120.9856366107124
 10
122.5725229292463
 20
121.0085895590439
 10
122.5786595054888
 20
121.0325222063895
 10
122.5824383445433
 20
121.057326893517
 10
122.583719489408
 20
121.0828636634243
 10
122.583719489408
 20
121.0828636634243
 10
122.5824383445433
 20
121.108465028871
 10
122.5786487395655
 20
121.1333127796913
 10
122.5725121633231
 20
121.1572884907299
 10
122.5641362750482
 20
121.1802845027544
 10
122.5536394998966
 20
121.2021500928394
 10
122.5411510289471
 20
121.2227668358294
 10
122.526789287355
 20
121.242016306569
 10
122.5106942321226
 20
121.2597800799025
 10
122.492973522482
 20
121.2759181988279
 10
122.4737455835889
 20
121.2903014722663
 10
122.4531611383686
 20
121.3028222409856
 10
122.43131708013
 20
121.3133405479837
 10
122.4083533658753
 20
121.3217487340282
 10
122.3843884207599
 20
121.3279068421171
 10
122.3595406699395
 20
121.3316856811717
 10
122.3339500704161
 20
121.3329775919596
 10
122.3339500704161
 20
121.3329775919596
 10
122.3084240664321
 20
121.3316856811717
 10
122.2836193793046
 20
121.3279068421171
 10
122.2596867319589
 20
121.321737968105
 10
122.2367230177042
 20
121.3133405479837
 10
122.2149004913121
 20
121.3028222409856
 10
122.1943052801685
 20
121.2903014722663
 10
122.1750773412754
 20
121.2759181988279
 10
122.1573458657116
 20
121.2597800799025
 10
122.1412077467863
 20
121.2420270724922
 10
122.126835239271
 20
121.2227668358294
 10
122.1143252364749
 20
121.2021500928394
 10
122.1038069294769
 20
121.1802845027544
 10
122.0954095093556
 20
121.1572992566532
 10
122.0892514012667
 20
121.1333127796913
 10
122.0854725622121
 20
121.108465028871
 10
122.0841806514242
 20
121.0828636634243
 10
122.0841806514242
 20
121.0828636634243
 10
122.0854725622121
 20
121.057326893517
 10
122.0892514012667
 20
121.0325329723128
 10
122.0954095093556
 20
121.0085787931206
 10
122.1038069294769
 20
120.9856473766356
 10
122.1143252364749
 20
120.9638033183971
 10
122.126835239271
 20
120.9432188731767
 10
122.1412185127095
 20
120.9239909342836
 10
122.1573458657116
 20
120.9062486927966
 10
122.1750773412754
 20
120.8901321057177
 10
122.1943052801685
 20
120.8757488322792
 10
122.2149004913121
 20
120.8632388294831
 10
122.2367337836274
 20
120.8527205224851
 10
122.2596759660357
 20
120.8443231023638
 10
122.2836193793046
 20
120.8381649942748
 10
122.3084133005088
 20
120.8343861552203
 10
122.3339500704161
 20
120.8330942444324
  0
HATCH
  5
80
330
1F
100
AcDbEntity
  8
ISS138金台
  6
Continuous
 62
   250
420
  2367521
370
    13
100
AcDbHatch
 10
0.0
 20
0.0
 30
0.0
210
0.0
220
0.0
230
1.0
  2
SOLID
 70
     1
 71
     0
 91
        1
 92
        3
 72
     0
 73
     1
 93
       67
 10
115.4768213519209
 20
89.42605935472278
 10
115.5024227173676
 20
89.42735664847228
 10
115.5272597022647
 20
89.4311462534501
 10
115.5512138814568
 20
89.43732051042389
 10
115.5741775957116
 20
89.44573946239163
 10
115.5960324198734
 20
89.45628468419778
 10
115.616627631017
 20
89.46883236772516
 10
115.6358340380636
 20
89.48324255597173
 10
115.6535655136274
 20
89.49939144082035
 10
115.669671334783
 20
89.51716059711543
 10
115.6840223104518
 20
89.53642083377821
 10
115.6965107814014
 20
89.5570429597299
 10
115.707007556553
 20
89.57890316685331
 10
115.7153942107511
 20
89.60187226406964
 10
115.7215307869935
 20
89.62582644326176
 10
115.7253096260481
 20
89.65063651335085
 10
115.7265907709128
 20
89.67617866621973
 10
115.7265907709128
 20
89.67617866621973
 10
115.7253096260481
 20
89.70172620205025
 10
115.7215200210703
 20
89.72652550621609
 10
115.7153942107511
 20
89.75047968540821
 10
115.707007556553
 20
89.77345416558617
 10
115.6965107814014
 20
89.79530898974795
 10
115.6840223104518
 20
89.81593649866126
 10
115.669671334783
 20
89.83519673532405
 10
115.6535655136274
 20
89.85296589161914
 10
115.6358448039868
 20
89.86912015942936
 10
115.616627631017
 20
89.88353034767593
 10
115.5960216539501
 20
89.89606726528008
 10
115.5741883616348
 20
89.90661248708622
 10
115.5512246473801
 20
89.9150368220156
 10
115.5272597022647
 20
89.92120569602776
 10
115.5024119514443
 20
89.9250060669288
 10
115.4768213519209
 20
89.92629797771669
 10
115.4768213519209
 20
89.92629797771669
 10
115.4512845820136
 20
89.9250060669288
 10
115.4264798948861
 20
89.92120569602776
 10
115.4025580134637
 20
89.91503143905396
 10
115.379594299209
 20
89.90661787004784
 10
115.3577717728169
 20
89.89606726528008
 10
115.3371765616733
 20
89.88353034767593
 10
115.3179486227802
 20
89.86912015942936
 10
115.3002171472165
 20
89.85296589161914
 10
115.2841005601375
 20
89.83519673532405
 10
115.2697065207758
 20
89.81593649866126
 10
115.2571965179798
 20
89.79530898974795
 10
115.2466782109817
 20
89.77345416558617
 10
115.2382807908604
 20
89.75047968540821
 10
115.2321226827714
 20
89.72653088917772
 10
115.2283438437169
 20
89.70172081908862
 10
115.227051932929
 20
89.67617866621973
 10
115.227051932929
 20
89.67617866621973
 10
115.2283330777936
 20
89.65064189631246
 10
115.2321226827714
 20
89.62582644326176
 10
115.2382807908604
 20
89.60187226406964
 10
115.2466782109817
 20
89.57890316685331
 10
115.2571965179798
 20
89.5570429597299
 10
115.2697065207758
 20
89.53642621673984
 10
115.2841005601375
 20
89.51716598007705
 10
115.3002171472165
 20
89.49939144082035
 10
115.3179486227802
 20
89.48323717301011
 10
115.3371765616733
 20
89.46882698476352
 10
115.3577717728169
 20
89.45629006715939
 10
115.3796050651322
 20
89.44574484535325
 10
115.4025472475405
 20
89.43732051042389
 10
115.4264906608094
 20
89.4311462534501
 10
115.4512845820136
 20
89.42735126551068
 97
        0
 75
     1
 76
     1
 98
        0
  0
LWPOLYLINE
  5
81
330
1F
100
AcDbEntity
  8
ISS138金台
  6
Continuous
 62
   250
420
  2367521
370
    13
100
AcDbPolyline
 90
       68
 70
     0
 43
0.0
 10
115.4768213519209
 20
89.42605935472278
 10
115.5024227173676
 20
89.42735664847228
 10
115.5272597022647
 20
89.4311462534501
 10
115.5512138814568
 20
89.43732051042389
 10
115.5741775957116
 20
89.44573946239163
 10
115.5960324198734
 20
89.45628468419778
 10
115.616627631017
 20
89.46883236772516
 10
115.6358340380636
 20
89.48324255597173
 10
115.6535655136274
 20
89.49939144082035
 10
115.669671334783
 20
89.51716059711543
 10
115.6840223104518
 20
89.53642083377821
 10
115.6965107814014
 20
89.5570429597299
 10
115.707007556553
 20
89.57890316685331
 10
115.7153942107511
 20
89.60187226406964
 10
115.7215307869935
 20
89.62582644326176
 10
115.7253096260481
 20
89.65063651335085
 10
115.7265907709128
 20
89.67617866621973
 10
115.7265907709128
 20
89.67617866621973
 10
115.7253096260481
 20
89.70172620205025
 10
115.7215200210703
 20
89.72652550621609
 10
115.7153942107511
 20
89.75047968540821
 10
115.707007556553
 20
89.77345416558617
 10
115.6965107814014
 20
89.79530898974795
 10
115.6840223104518
 20
89.81593649866126
 10
115.669671334783
 20
89.83519673532405
 10
115.6535655136274
 20
89.85296589161914
 10
115.6358448039868
 20
89.86912015942936
 10
115.616627631017
 20
89.88353034767593
 10
115.5960216539501
 20
89.89606726528008
 10
115.5741883616348
 20
89.90661248708622
 10
115.5512246473801
 20
89.9150368220156
 10
115.5272597022647
 20
89.92120569602776
 10
115.5024119514443
 20
89.9250060669288
 10
115.4768213519209
 20
89.92629797771669
 10
115.4768213519209
 20
89.92629797771669
 10
115.4512845820136
 20
89.9250060669288
 10
115.4264798948861
 20
89.92120569602776
 10
115.4025580134637
 20
89.91503143905396
 10
115.379594299209
 20
89.90661787004784
 10
115.3577717728169
 20
89.89606726528008
 10
115.3371765616733
 20
89.88353034767593
 10
115.3179486227802
 20
89.86912015942936
 10
115.3002171472165
 20
89.85296589161914
 10
115.2841005601375
 20
89.83519673532405
 10
115.2697065207758
 20
89.81593649866126
 10
115.2571965179798
 20
89.79530898974795
 10
115.2466782109817
 20
89.77345416558617
 10
115.2382807908604
 20
89.75047968540821
 10
115.2321226827714
 20
89.72653088917772
 10
115.2283438437169
 20
89.70172081908862
 10
115.227051932929
 20
89.67617866621973
 10
115.227051932929
 20
89.67617866621973
 10
115.2283330777936
 20
89.65064189631246
 10
115.2321226827714
 20
89.62582644326176
 10
115.2382807908604
 20
89.60187226406964
 10
115.2466782109817
 20
89.57890316685331
 10
115.2571965179798
 20
89.5570429597299
 10
115.2697065207758
 20
89.53642621673984
 10
115.2841005601375
 20
89.51716598007705
 10
115.3002171472165
 20
89.49939144082035
 10
115.3179486227802
 20
89.48323717301011
 10
115.3371765616733
 20
89.46882698476352
 10
115.3577717728169
 20
89.45629006715939
 10
115.3796050651322
 20
89.44574484535325
 10
115.4025472475405
 20
89.43732051042389
 10
115.4264906608094
 20
89.4311462534501
 10
115.4512845820136
 20
89.42735126551068
 10
115.4768213519209
 20
89.42605935472278
  0
HATCH
  5
82
330
1F
100
AcDbEntity
  8
ISS138金台
  6
Continuous
 62
   250
420
  2367521
370
    13
100
AcDbHatch
 10
0.0
 20
0.0
 30
0.0
210
0.0
220
0.0
230
1.0
  2
SOLID
 70
     1
 71
     0
 91
        1
 92
        3
 72
     0
 73
     1
 93
       67
 10
143.588800096388
 20
89.42605935472278
 10
143.6144014618347
 20
89.42735664847228
 10
143.639249212655
 20
89.4311462534501
 10
143.6632356896169
 20
89.43732051042389
 10
143.686220935718
 20
89.44573946239163
 10
143.7080865258031
 20
89.45628468419778
 10
143.7287140347164
 20
89.46883236772516
 10
143.7479635054559
 20
89.48324255597173
 10
143.7657272787894
 20
89.49939144082035
 10
143.7818546317915
 20
89.51716059711543
 10
143.79623790523
 20
89.53642083377821
 10
143.8087694398726
 20
89.5570429597299
 10
143.8192877468707
 20
89.57890316685331
 10
143.8276959329152
 20
89.60187226406964
 10
143.8338432750809
 20
89.62582644326176
 10
143.8376328800587
 20
89.65063651335085
 10
143.8389247908465
 20
89.67617866621973
 10
143.8389247908465
 20
89.67617866621973
 10
143.8376436459819
 20
89.70172620205025
 10
143.8338325091576
 20
89.72652550621609
 10
143.8276851669919
 20
89.75047968540821
 10
143.8192877468707
 20
89.77345416558617
 10
143.8087586739493
 20
89.79530898974795
 10
143.7962486711533
 20
89.81593649866126
 10
143.7818546317915
 20
89.83519673532405
 10
143.7657272787894
 20
89.85296589161914
 10
143.7479635054559
 20
89.86912015942936
 10
143.7287140347164
 20
89.88353034767593
 10
143.7080865258031
 20
89.89606726528008
 10
143.686220935718
 20
89.90661248708622
 10
143.6632356896169
 20
89.9150368220156
 10
143.639249212655
 20
89.92120569602776
 10
143.6144014618347
 20
89.9250060669288
 10
143.588800096388
 20
89.92629797771669
 10
143.588800096388
 20
89.92629797771669
 10
143.563274092404
 20
89.9250060669288
 10
143.5384586393532
 20
89.92120569602776
 10
143.5145367579308
 20
89.91503143905396
 10
143.4915730436761
 20
89.90661787004784
 10
143.4697397513608
 20
89.89606726528008
 10
143.4491553061404
 20
89.88353034767593
 10
143.4299166013241
 20
89.86912015942936
 10
143.4121958916836
 20
89.85296589161914
 10
143.3960685386814
 20
89.83519673532405
 10
143.3816852652429
 20
89.81593649866126
 10
143.3691752624468
 20
89.79530898974795
 10
143.3586569554488
 20
89.77345416558617
 10
143.3502595353275
 20
89.75047968540821
 10
143.3441014272386
 20
89.72653088917772
 10
143.340322588184
 20
89.70172081908862
 10
143.3390306773961
 20
89.67617866621973
 10
143.3390306773961
 20
89.67617866621973
 10
143.340322588184
 20
89.65064189631246
 10
143.3441014272386
 20
89.62582644326176
 10
143.3502595353275
 20
89.60187226406964
 10
143.3586569554488
 20
89.57890316685331
 10
143.3691752624468
 20
89.5570429597299
 10
143.3816852652429
 20
89.53642621673984
 10
143.3960685386814
 20
89.51716598007705
 10
143.4121958916836
 20
89.49939144082035
 10
143.4299166013241
 20
89.48323717301011
 10
143.4491553061404
 20
89.46882698476352
 10
143.469750517284
 20
89.45629006715939
 10
143.4915838095993
 20
89.44574484535325
 10
143.5145259920076
 20
89.43732051042389
 10
143.5384694052765
 20
89.4311462534501
 10
143.5632633264807
 20
89.42735126551068
 97
        0
 75
     1
 76
     1
 98
        0
  0
LWPOLYLINE
  5
83
330
1F
100
AcDbEntity
  8
ISS138金台
  6
Continuous
 62
   250
420
  2367521
370
    13
100
AcDbPolyline
 90
       68
 70
     0
 43
0.0
 10
143.588800096388
 20
89.42605935472278
 10
143.6144014618347
 20
89.42735664847228
 10
143.639249212655
 20
89.4311462534501
 10
143.6632356896169
 20
89.43732051042389
 10
143.686220935718
 20
89.44573946239163
 10
143.7080865258031
 20
89.45628468419778
 10
143.7287140347164
 20
89.46883236772516
 10
143.7479635054559
 20
89.48324255597173
 10
143.7657272787894
 20
89.49939144082035
 10
143.7818546317915
 20
89.51716059711543
 10
143.79623790523
 20
89.53642083377821
 10
143.8087694398726
 20
89.5570429597299
 10
143.8192877468707
 20
89.57890316685331
 10
143.8276959329152
 20
89.60187226406964
 10
143.8338432750809
 20
89.62582644326176
 10
143.8376328800587
 20
89.65063651335085
 10
143.8389247908465
 20
89.67617866621973
 10
143.8389247908465
 20
89.67617866621973
 10
143.8376436459819
 20
89.70172620205025
 10
143.8338325091576
 20
89.72652550621609
 10
143.8276851669919
 20
89.75047968540821
 10
143.8192877468707
 20
89.77345416558617
 10
143.8087586739493
 20
89.79530898974795
 10
143.7962486711533
 20
89.81593649866126
 10
143.7818546317915
 20
89.83519673532405
 10
143.7657272787894
 20
89.85296589161914
 10
143.7479635054559
 20
89.86912015942936
 10
143.7287140347164
 20
89.88353034767593
 10
143.7080865258031
 20
89.89606726528008
 10
143.686220935718
 20
89.90661248708622
 10
143.6632356896169
 20
89.9150368220156
 10
143.639249212655
 20
89.92120569602776
 10
143.6144014618347
 20
89.9250060669288
 10
143.588800096388
 20
89.92629797771669
 10
143.588800096388
 20
89.92629797771669
 10
143.563274092404
 20
89.9250060669288
 10
143.5384586393532
 20
89.92120569602776
 10
143.5145367579308
 20
89.91503143905396
 10
143.4915730436761
 20
89.90661787004784
 10
143.4697397513608
 20
89.89606726528008
 10
143.4491553061404
 20
89.88353034767593
 10
143.4299166013241
 20
89.86912015942936
 10
143.4121958916836
 20
89.85296589161914
 10
143.3960685386814
 20
89.83519673532405
 10
143.3816852652429
 20
89.81593649866126
 10
143.3691752624468
 20
89.79530898974795
 10
143.3586569554488
 20
89.77345416558617
 10
143.3502595353275
 20
89.75047968540821
 10
143.3441014272386
 20
89.72653088917772
 10
143.340322588184
 20
89.70172081908862
 10
143.3390306773961
 20
89.67617866621973
 10
143.3390306773961
 20
89.67617866621973
 10
143.340322588184
 20
89.65064189631246
 10
143.3441014272386
 20
89.62582644326176
 10
143.3502595353275
 20
89.60187226406964
 10
143.3586569554488
 20
89.57890316685331
 10
143.3691752624468
 20
89.5570429597299
 10
143.3816852652429
 20
89.53642621673984
 10
143.3960685386814
 20
89.51716598007705
 10
143.4121958916836
 20
89.49939144082035
 10
143.4299166013241
 20
89.48323717301011
 10
143.4491553061404
 20
89.46882698476352
 10
143.469750517284
 20
89.45629006715939
 10
143.4915838095993
 20
89.44574484535325
 10
143.5145259920076
 20
89.43732051042389
 10
143.5384694052765
 20
89.4311462534501
 10
143.5632633264807
 20
89.42735126551068
 10
143.588800096388
 20
89.42605935472278
  0
HATCH
  5
84
330
1F
100
AcDbEntity
  8
ISS138金台
  6
Continuous
 62
   250
420
  2367521
370
    13
100
AcDbHatch
 10
0.0
 20
0.0
 30
0.0
210
0.0
220
0.0
230
1.0
  2
SOLID
 70
     1
 71
     0
 91
        1
 92
        3
 72
     0
 73
     1
 93
       67
 10
149.1009635573048
 20
99.98046987634653
 10
149.1265649227514
 20
99.98175102121118
 10
149.1514126735718
 20
99.98555139211223
 10
149.1753991505337
 20
99.99170950020117
 10
149.1983843966348
 20
100.0001069203225
 10
149.2202499867199
 20
100.0106252273205
 10
149.2408774956332
 20
100.0231459960398
 10
149.2601269663727
 20
100.0375292694783
 10
149.2778799737829
 20
100.0536673884037
 10
149.2940180927083
 20
100.0714203958139
 10
149.3084013661468
 20
100.0906806324767
 10
149.3209329007894
 20
100.1112973754668
 10
149.3314512077874
 20
100.1331629655518
 10
149.3398593938319
 20
100.1561589775762
 10
149.3460175019209
 20
100.180145454538
 10
149.3497963409754
 20
100.2049932053584
 10
149.3510882517633
 20
100.2305945708051
 10
149.3510882517633
 20
100.2305945708051
 10
149.3497963409754
 20
100.2561313407124
 10
149.3460067359976
 20
100.2809252619166
 10
149.3398486279087
 20
100.3048579092623
 10
149.3314512077874
 20
100.3278108575938
 10
149.3209329007894
 20
100.3496333839858
 10
149.3084013661468
 20
100.3702393610527
 10
149.2940180927083
 20
100.3894672999458
 10
149.2778799737829
 20
100.4071987755095
 10
149.2601269663727
 20
100.4233153625885
 10
149.2408774956332
 20
100.437698636027
 10
149.2202499867199
 20
100.450208638823
 10
149.1983843966348
 20
100.4607269458211
 10
149.1753991505337
 20
100.4691243659423
 10
149.1514126735718
 20
100.4752824740313
 10
149.1265649227514
 20
100.4790613130859
 10
149.1009635573048
 20
100.4803532238738
 10
149.1009635573048
 20
100.4803532238738
 10
149.0754375533207
 20
100.4790613130859
 10
149.0506328661933
 20
100.4752824740313
 10
149.0267002188476
 20
100.4691351318656
 10
149.0037365045929
 20
100.4607269458211
 10
148.9819139782008
 20
100.450208638823
 10
148.9613187670572
 20
100.437698636027
 10
148.9420908281641
 20
100.4233153625885
 10
148.9243593526003
 20
100.4071987755095
 10
148.908221233675
 20
100.3894565340225
 10
148.8938487261597
 20
100.3702285951294
 10
148.8813387233636
 20
100.3496441499091
 10
148.8708311822888
 20
100.3278108575938
 10
148.8624229962443
 20
100.3048579092623
 10
148.8562648881554
 20
100.2809252619166
 10
148.8524860491008
 20
100.2561313407124
 10
148.8511941383129
 20
100.2305945708051
 10
148.8511941383129
 20
100.2305945708051
 10
148.8524860491008
 20
100.2049824394352
 10
148.8562648881554
 20
100.180145454538
 10
148.8624229962443
 20
100.156148211653
 10
148.8708204163656
 20
100.133173731475
 10
148.8813387233636
 20
100.1112973754668
 10
148.8938487261597
 20
100.0906806324767
 10
148.9082319995982
 20
100.0714311617372
 10
148.9243593526003
 20
100.0536781543269
 10
148.9420908281641
 20
100.0375400354015
 10
148.9613187670572
 20
100.0231459960398
 10
148.9819139782008
 20
100.0106252273205
 10
149.0037472705161
 20
100.0001069203225
 10
149.0266894529244
 20
99.99169873427795
 10
149.0506328661933
 20
99.98554062618899
 10
149.0754267873975
 20
99.98176178713442
 97
        0
 75
     1
 76
     1
 98
        0
  0
LWPOLYLINE
  5
85
330
1F
100
AcDbEntity
  8
ISS138金台
  6
Continuous
 62
   250
420
  2367521
370
    13
100
AcDbPolyline
 90
       68
 70
     0
 43
0.0
 10
149.1009635573048
 20
99.98046987634653
 10
149.1265649227514
 20
99.98175102121118
 10
149.1514126735718
 20
99.98555139211223
 10
149.1753991505337
 20
99.99170950020117
 10
149.1983843966348
 20
100.0001069203225
 10
149.2202499867199
 20
100.0106252273205
 10
149.2408774956332
 20
100.0231459960398
 10
149.2601269663727
 20
100.0375292694783
 10
149.2778799737829
 20
100.0536673884037
 10
149.2940180927083
 20
100.0714203958139
 10
149.3084013661468
 20
100.0906806324767
 10
149.3209329007894
 20
100.1112973754668
 10
149.3314512077874
 20
100.1331629655518
 10
149.3398593938319
 20
100.1561589775762
 10
149.3460175019209
 20
100.180145454538
 10
149.3497963409754
 20
100.2049932053584
 10
149.3510882517633
 20
100.2305945708051
 10
149.3510882517633
 20
100.2305945708051
 10
149.3497963409754
 20
100.2561313407124
 10
149.3460067359976
 20
100.2809252619166
 10
149.3398486279087
 20
100.3048579092623
 10
149.3314512077874
 20
100.3278108575938
 10
149.3209329007894
 20
100.3496333839858
 10
149.3084013661468
 20
100.3702393610527
 10
149.2940180927083
 20
100.3894672999458
 10
149.2778799737829
 20
100.4071987755095
 10
149.2601269663727
 20
100.4233153625885
 10
149.2408774956332
 20
100.437698636027
 10
149.2202499867199
 20
100.450208638823
 10
149.1983843966348
 20
100.4607269458211
 10
149.1753991505337
 20
100.4691243659423
 10
149.1514126735718
 20
100.4752824740313
 10
149.1265649227514
 20
100.4790613130859
 10
149.1009635573048
 20
100.4803532238738
 10
149.1009635573048
 20
100.4803532238738
 10
149.0754375533207
 20
100.4790613130859
 10
149.0506328661933
 20
100.4752824740313
 10
149.0267002188476
 20
100.4691351318656
 10
149.0037365045929
 20
100.4607269458211
 10
148.9819139782008
 20
100.450208638823
 10
148.9613187670572
 20
100.437698636027
 10
148.9420908281641
 20
100.4233153625885
 10
148.9243593526003
 20
100.4071987755095
 10
148.908221233675
 20
100.3894565340225
 10
148.8938487261597
 20
100.3702285951294
 10
148.8813387233636
 20
100.3496441499091
 10
148.8708311822888
 20
100.3278108575938
 10
148.8624229962443
 20
100.3048579092623
 10
148.8562648881554
 20
100.2809252619166
 10
148.8524860491008
 20
100.2561313407124
 10
148.8511941383129
 20
100.2305945708051
 10
148.8511941383129
 20
100.2305945708051
 10
148.8524860491008
 20
100.2049824394352
 10
148.8562648881554
 20
100.180145454538
 10
148.8624229962443
 20
100.156148211653
 10
148.8708204163656
 20
100.133173731475
 10
148.8813387233636
 20
100.1112973754668
 10
148.8938487261597
 20
100.0906806324767
 10
148.9082319995982
 20
100.0714311617372
 10
148.9243593526003
 20
100.0536781543269
 10
148.9420908281641
 20
100.0375400354015
 10
148.9613187670572
 20
100.0231459960398
 10
148.9819139782008
 20
100.0106252273205
 10
149.0037472705161
 20
100.0001069203225
 10
149.0266894529244
 20
99.99169873427795
 10
149.0506328661933
 20
99.98554062618899
 10
149.0754267873975
 20
99.98176178713442
 10
149.1009635573048
 20
99.98046987634653
  0
HATCH
  5
86
330
1F
100
AcDbEntity
  8
ISS138金台
  6
Continuous
 62
   250
420
  2367521
370
    13
100
AcDbHatch
 10
0.0
 20
0.0
 30
0.0
210
0.0
220
0.0
230
1.0
  2
SOLID
 70
     1
 71
     0
 91
        1
 92
        3
 72
     0
 73
     1
 93
       67
 10
149.1009635573048
 20
115.0022702217595
 10
149.1265649227514
 20
115.0035728984706
 10
149.1514126735718
 20
115.0073517375252
 10
149.1753991505337
 20
115.0134990796909
 10
149.1983843966348
 20
115.0219072657354
 10
149.2202499867199
 20
115.0324255727335
 10
149.2408774956332
 20
115.0449248096063
 10
149.2601269663727
 20
115.0592973171216
 10
149.2778799737829
 20
115.0754246701238
 10
149.2940180927083
 20
115.0931669116108
 10
149.3084013661468
 20
115.1123948505038
 10
149.3209329007894
 20
115.1329792957242
 10
149.3314512077874
 20
115.1548125880395
 10
149.3398593938319
 20
115.177765536371
 10
149.3460175019209
 20
115.2016981837167
 10
149.3497963409754
 20
115.2265028708441
 10
149.3510882517633
 20
115.2520396407514
 10
149.3510882517633
 20
115.2520396407514
 10
149.3497963409754
 20
115.2776410061981
 10
149.3460067359976
 20
115.3024887570185
 10
149.3398486279087
 20
115.3264752339803
 10
149.3314512077874
 20
115.3494712460047
 10
149.3209329007894
 20
115.3713260701665
 10
149.3084013661468
 20
115.3919428131566
 10
149.2940180927083
 20
115.4112030498193
 10
149.2778799737829
 20
115.4289560572296
 10
149.2601269663727
 20
115.445094176155
 10
149.2408774956332
 20
115.4594774495935
 10
149.2202499867199
 20
115.4719982183128
 10
149.1983843966348
 20
115.4825165253108
 10
149.1753991505337
 20
115.4909247113553
 10
149.1514126735718
 20
115.4970720535211
 10
149.1265649227514
 20
115.5008616584989
 10
149.1009635573048
 20
115.5021535692867
 10
149.1009635573048
 20
115.5021535692867
 10
149.0754375533207
 20
115.5008616584989
 10
149.0506328661933
 20
115.4970828194443
 10
149.0267002188476
 20
115.4909247113553
 10
149.0037365045929
 20
115.4825272912341
 10
148.9819139782008
 20
115.4719982183128
 10
148.9613187670572
 20
115.4594774495935
 10
148.9420908281641
 20
115.4450834102317
 10
148.9243593526003
 20
115.4289560572296
 10
148.908221233675
 20
115.4112030498193
 10
148.8938487261597
 20
115.3919535790798
 10
148.8813387233636
 20
115.3713260701665
 10
148.8708311822888
 20
115.3494604800815
 10
148.8624229962443
 20
115.3264752339803
 10
148.8562648881554
 20
115.3024887570185
 10
148.8524860491008
 20
115.2776410061981
 10
148.8511941383129
 20
115.2520396407514
 10
148.8511941383129
 20
115.2520396407514
 10
148.8524860491008
 20
115.2265028708441
 10
148.8562648881554
 20
115.2016981837167
 10
148.8624229962443
 20
115.177765536371
 10
148.8708204163656
 20
115.1548125880395
 10
148.8813387233636
 20
115.1329900616474
 10
148.8938487261597
 20
115.1123948505038
 10
148.9082319995982
 20
115.0931561456875
 10
148.9243593526003
 20
115.0754246701238
 10
148.9420908281641
 20
115.0593080830448
 10
148.9613187670572
 20
115.0449248096063
 10
148.9819139782008
 20
115.0324148068103
 10
149.0037472705161
 20
115.0218964998122
 10
149.0266894529244
 20
115.0134990796909
 10
149.0506328661933
 20
115.007340971602
 10
149.0754267873975
 20
115.0035621325474
 97
        0
 75
     1
 76
     1
 98
        0
  0
LWPOLYLINE
  5
87
330
1F
100
AcDbEntity
  8
ISS138金台
  6
Continuous
 62
   250
420
  2367521
370
    13
100
AcDbPolyline
 90
       68
 70
     0
 43
0.0
 10
149.1009635573048
 20
115.0022702217595
 10
149.1265649227514
 20
115.0035728984706
 10
149.1514126735718
 20
115.0073517375252
 10
149.1753991505337
 20
115.0134990796909
 10
149.1983843966348
 20
115.0219072657354
 10
149.2202499867199
 20
115.0324255727335
 10
149.2408774956332
 20
115.0449248096063
 10
149.2601269663727
 20
115.0592973171216
 10
149.2778799737829
 20
115.0754246701238
 10
149.2940180927083
 20
115.0931669116108
 10
149.3084013661468
 20
115.1123948505038
 10
149.3209329007894
 20
115.1329792957242
 10
149.3314512077874
 20
115.1548125880395
 10
149.3398593938319
 20
115.177765536371
 10
149.3460175019209
 20
115.2016981837167
 10
149.3497963409754
 20
115.2265028708441
 10
149.3510882517633
 20
115.2520396407514
 10
149.3510882517633
 20
115.2520396407514
 10
149.3497963409754
 20
115.2776410061981
 10
149.3460067359976
 20
115.3024887570185
 10
149.3398486279087
 20
115.3264752339803
 10
149.3314512077874
 20
115.3494712460047
 10
149.3209329007894
 20
115.3713260701665
 10
149.3084013661468
 20
115.3919428131566
 10
149.2940180927083
 20
115.4112030498193
 10
149.2778799737829
 20
115.4289560572296
 10
149.2601269663727
 20
115.445094176155
 10
149.2408774956332
 20
115.4594774495935
 10
149.2202499867199
 20
115.4719982183128
 10
149.1983843966348
 20
115.4825165253108
 10
149.1753991505337
 20
115.4909247113553
 10
149.1514126735718
 20
115.4970720535211
 10
149.1265649227514
 20
115.5008616584989
 10
149.1009635573048
 20
115.5021535692867
 10
149.1009635573048
 20
115.5021535692867
 10
149.0754375533207
 20
115.5008616584989
 10
149.0506328661933
 20
115.4970828194443
 10
149.0267002188476
 20
115.4909247113553
 10
149.0037365045929
 20
115.4825272912341
 10
148.9819139782008
 20
115.4719982183128
 10
148.9613187670572
 20
115.4594774495935
 10
148.9420908281641
 20
115.4450834102317
 10
148.9243593526003
 20
115.4289560572296
 10
148.908221233675
 20
115.4112030498193
 10
148.8938487261597
 20
115.3919535790798
 10
148.8813387233636
 20
115.3713260701665
 10
148.8708311822888
 20
115.3494604800815
 10
148.8624229962443
 20
115.3264752339803
 10
148.8562648881554
 20
115.3024887570185
 10
148.8524860491008
 20
115.2776410061981
 10
148.8511941383129
 20
115.2520396407514
 10
148.8511941383129
 20
115.2520396407514
 10
148.8524860491008
 20
115.2265028708441
 10
148.8562648881554
 20
115.2016981837167
 10
148.8624229962443
 20
115.177765536371
 10
148.8708204163656
 20
115.1548125880395
 10
148.8813387233636
 20
115.1329900616474
 10
148.8938487261597
 20
115.1123948505038
 10
148.9082319995982
 20
115.0931561456875
 10
148.9243593526003
 20
115.0754246701238
 10
148.9420908281641
 20
115.0593080830448
 10
148.9613187670572
 20
115.0449248096063
 10
148.9819139782008
 20
115.0324148068103
 10
149.0037472705161
 20
115.0218964998122
 10
149.0266894529244
 20
115.0134990796909
 10
149.0506328661933
 20
115.007340971602
 10
149.0754267873975
 20
115.0035621325474
 10
149.1009635573048
 20
115.0022702217595
  0
TEXT
  5
88
330
1F
100
AcDbEntity
  8
ISS138金台
  6
Continuous
 62
   250
420
  2367521
100
AcDbText
 10
118.2549570761209
 20
122.1641532020352
 30
0.0
 40
2.150533301035563
  1
7
 41
1.024999618530273
  7
MS Gothic
100
AcDbText
  0
TEXT
  5
89
330
1F
100
AcDbEntity
  8
ISS138金台
  6
Continuous
 62
   250
420
  2367521
100
AcDbText
 10
128.2202185977359
 20
90.77821413889951
 30
0.0
 40
2.150533301035563
  1
28
 41
0.9440002441406249
  7
MS Gothic
100
AcDbText
  0
TEXT
  5
8A
330
1F
100
AcDbEntity
  8
ISS138金台
  6
Continuous
 62
   250
420
  2367521
100
AcDbText
 10
148.1077069729652
 20
106.4093516831088
 30
0.0
 40
2.150533301035563
  1
15
 50
90.00000250447816
 41
0.8493762016296386
  7
MS Gothic
100
AcDbText
  0
LINE
  5
8B
330
1F
100
AcDbEntity
  8
ISS138金台
  6
UserDefined01
 62
   140
420
    44526
370
    13
100
AcDbLine
 10
131.6114413522519
 20
94.20164526288622
 30
0.0
 11
143.5617883949979
 21
94.20164526288622
 31
0.0
  0
TEXT
  5
8C
330
1F
100
AcDbEntity
  8
ISS138金台
  6
Continuous
 62
   140
420
    44526
100
AcDbText
 10
136.180294619545
 20
94.9904646303796
 30
0.0
 40
1.881716638406118
  1
12
 41
1.086251395089286
  7
MS Gothic
100
AcDbText
  0
HATCH
  5
8D
330
1F
100
AcDbEntity
  8
ISS138金台
  6
Continuous
 62
   140
420
    44526
370
    50
100
AcDbHatch
 10
0.0
 20
0.0
 30
0.0
210
0.0
220
0.0
230
1.0
  2
SOLID
 70
     1
 71
     0
 91
        1
 92
        3
 72
     0
 73
     1
 93
        3
 10
130.7455166148227
 20
103.3738673473555
 10
132.4776567696083
 20
103.3731567964221
 10
131.6126471356539
 20
101.8745618143172
 97
        0
 75
     1
 76
     1
 98
        0
  0
LWPOLYLINE
  5
8E
330
1F
100
AcDbEntity
  8
ISS138金台
  6
Continuous
 62
   140
420
    44526
370
    50
100
AcDbPolyline
 90
        4
 70
     0
 43
0.0
 10
130.7455166148227
 20
103.3738673473555
 10
132.4776567696083
 20
103.3731567964221
 10
131.6126471356539
 20
101.8745618143172
 10
130.7455166148227
 20
103.3738673473555
  0
ENDSEC
  0
SECTION
  2
OBJECTS
  0
DICTIONARY
  5
C
330
0
100
AcDbDictionary
281
     1
  3
ACAD_DETAILVIEWSTYLE
350
96
  3
ACAD_GROUP
350
D
  3
ACAD_LAYOUT
350
1A
  3
ACAD_MATERIAL
350
43
  3
ACAD_MLEADERSTYLE
350
5B
  3
ACAD_MLINESTYLE
350
17
  3
ACAD_PLOTSETTINGS
350
19
  3
ACAD_PLOTSTYLENAME
350
E
  3
ACAD_SCALELIST
350
47
  3
ACAD_SECTIONVIEWSTYLE
350
97
  3
ACAD_TABLESTYLE
350
59
  3
ACAD_VISUALSTYLE
350
2A
  3
ACDB_RECOMPOSE_DATA
350
93
  3
AcDbVariableDictionary
350
8F
  0
SUN
  5
5D
330
29
100
AcDbSun
 90
        1
290
     0
 63
     7
421
 16777215
 40
1.0
291
     1
 91
  2455826
 92
 54000000
292
     0
 70
     2
 71
   256
280
     1
  0
DICTIONARY
  5
96
102
{ACAD_REACTORS
330
C
102
}
330
C
100
AcDbDictionary
281
     1
  0
DICTIONARY
  5
D
102
{ACAD_REACTORS
330
C
102
}
330
C
100
AcDbDictionary
281
     1
  0
DICTIONARY
  5
1A
102
{ACAD_REACTORS
330
C
102
}
330
C
100
AcDbDictionary
281
     1
  3
Layout1
350
1E
  3
Layout2
350
26
  3
Model
350
22
  0
DICTIONARY
  5
43
102
{ACAD_REACTORS
330
C
102
}
330
C
100
AcDbDictionary
281
     1
  3
ByBlock
350
45
  3
ByLayer
350
44
  3
Global
350
46
  0
DICTIONARY
  5
5B
102
{ACAD_REACTORS
330
C
102
}
330
C
100
AcDbDictionary
281
     1
  3
Standard
350
5C
  0
DICTIONARY
  5
17
102
{ACAD_REACTORS
330
C
102
}
330
C
100
AcDbDictionary
281
     1
  3
Standard
350
18
  0
DICTIONARY
  5
19
102
{ACAD_REACTORS
330
C
102
}
330
C
100
AcDbDictionary
281
     1
  0
ACDBDICTIONARYWDFLT
  5
E
102
{ACAD_REACTORS
330
C
102
}
330
C
100
AcDbDictionary
281
     1
  3
Normal
350
F
100
AcDbDictionaryWithDefault
340
F
  0
DICTIONARY
  5
47
102
{ACAD_REACTORS
330
C
102
}
330
C
100
AcDbDictionary
281
     1
  3
A0
350
48
  3
A1
350
49
  3
A2
350
4A
  3
A3
350
4B
  3
A4
350
4C
  3
A5
350
4D
  3
A6
350
4E
  3
A7
350
4F
  3
A8
350
50
  3
A9
350
51
  3
B0
350
52
  3
B1
350
53
  3
B2
350
54
  3
B3
350
55
  3
B4
350
56
  3
B5
350
57
  3
B6
350
58
  0
DICTIONARY
  5
97
102
{ACAD_REACTORS
330
C
102
}
330
C
100
AcDbDictionary
281
     1
  0
DICTIONARY
  5
59
102
{ACAD_REACTORS
330
C
102
}
330
C
100
AcDbDictionary
281
     1
  3
Standard
350
5A
  0
DICTIONARY
  5
2A
102
{ACAD_REACTORS
330
C
102
}
330
C
100
AcDbDictionary
281
     1
  3
2dWireframe
350
2F
  3
Basic
350
32
  3
Brighten
350
36
  3
ColorChange
350
3A
  3
Conceptual
350
34
  3
Dim
350
35
  3
EdgeColorOff
350
3D
  3
Facepattern
350
39
  3
Flat
350
2B
  3
FlatWithEdges
350
2C
  3
Gouraud
350
2D
  3
GouraudWithEdges
350
2E
  3
Hidden
350
31
  3
JitterOff
350
3B
  3
Linepattern
350
38
  3
OverhangOff
350
3C
  3
Realistic
350
33
  3
Shaded
350
42
  3
Shaded with edges
350
41
  3
Shades of Gray
350
3E
  3
Sketchy
350
3F
  3
Thicken
350
37
  3
Wireframe
350
30
  3
X-Ray
350
40
  0
XRECORD
  5
93
102
{ACAD_REACTORS
330
C
102
}
330
C
100
AcDbXrecord
280
     1
 90
        1
330
5A
  0
DICTIONARY
  5
8F
102
{ACAD_REACTORS
330
C
102
}
330
C
100
AcDbDictionary
281
     1
  3
CANNOSCALE
350
90
  3
CENTEREXE
350
98
  3
CENTERLTYPEFILE
350
99
  3
CMLEADERSTYLE
350
95
  3
CTABLESTYLE
350
94
  0
LAYOUT
  5
1E
102
{ACAD_REACTORS
330
1A
102
}
330
1A
100
AcDbPlotSettings
  1

  2
none_device
  4

  6

 40
0.0
 41
0.0
 42
0.0
 43
0.0
 44
0.0
 45
0.0
 46
0.0
 47
0.0
 48
0.0
 49
0.0
140
0.0
141
0.0
142
1.0
143
1.0
 70
   688
 72
     1
 73
     0
 74
     5
  7

 75
    16
 76
     0
 77
     5
 78
   300
147
1.0
148
0.0
149
0.0
100
AcDbLayout
  1
Layout1
 70
     1
 71
     1
 10
0.0
 20
0.0
 11
420.0
 21
297.0
 12
0.0
 22
0.0
 32
0.0
 14
1.000000000000000E+20
 24
1.000000000000000E+20
 34
1.000000000000000E+20
 15
-1.000000000000000E+20
 25
-1.000000000000000E+20
 35
-1.000000000000000E+20
146
0.0
 13
0.0
 23
0.0
 33
0.0
 16
1.0
 26
0.0
 36
0.0
 17
0.0
 27
1.0
 37
0.0
 76
     0
330
1B
  0
LAYOUT
  5
26
102
{ACAD_REACTORS
330
1A
102
}
330
1A
100
AcDbPlotSettings
  1

  2
none_device
  4

  6

 40
0.0
 41
0.0
 42
0.0
 43
0.0
 44
0.0
 45
0.0
 46
0.0
 47
0.0
 48
0.0
 49
0.0
140
0.0
141
0.0
142
1.0
143
1.0
 70
   688
 72
     1
 73
     0
 74
     5
  7

 75
    16
 76
     0
 77
     5
 78
   300
147
1.0
148
0.0
149
0.0
100
AcDbLayout
  1
Layout2
 70
     1
 71
     2
 10
0.0
 20
0.0
 11
0.0
 21
0.0
 12
0.0
 22
0.0
 32
0.0
 14
0.0
 24
0.0
 34
0.0
 15
0.0
 25
0.0
 35
0.0
146
0.0
 13
0.0
 23
0.0
 33
0.0
 16
1.0
 26
0.0
 36
0.0
 17
0.0
 27
1.0
 37
0.0
 76
     0
330
23
  0
LAYOUT
  5
22
102
{ACAD_REACTORS
330
1A
102
}
330
1A
100
AcDbPlotSettings
  1

  2
none_device
  4
Letter_(8.50_x_11.00_Inches)
  6

 40
6.35
 41
6.35
 42
6.35000508
 43
6.35000508
 44
215.9
 45
279.4
 46
0.0
 47
0.0
 48
0.0
 49
0.0
140
0.0
141
0.0
142
1.0
143
1.0
 70
  1712
 72
     1
 73
     0
 74
     0
  7

 75
     0
 76
     0
 77
     5
 78
   300
147
1.0
148
0.0
149
0.0
100
AcDbLayout
  1
Model
 70
     1
 71
     0
 10
0.0
 20
0.0
 11
302.9997823349792
 21
216.0016055409748
 12
0.0
 22
0.0
 32
0.0
 14
0.0
 24
0.0
 34
0.0
 15
302.9997823349792
 25
216.0016055409748
 35
0.0
146
0.0
 13
0.0
 23
0.0
 33
0.0
 16
1.0
 26
0.0
 36
0.0
 17
0.0
 27
1.0
 37
0.0
 76
     0
330
1F
331
29
  0
MATERIAL
  5
45
102
{ACAD_REACTORS
330
43
102
}
330
43
100
AcDbMaterial
  1
ByBlock
 72
     1
 94
      127
  0
MATERIAL
  5
44
102
{ACAD_REACTORS
330
43
102
}
330
43
100
AcDbMaterial
  1
ByLayer
 72
     1
 94
      127
  0
MATERIAL
  5
46
102
{ACAD_REACTORS
330
43
102
}
330
43
100
AcDbMaterial
  1
Global
 72
     1
 94
      127
  0
MLEADERSTYLE
  5
5C
102
{ACAD_REACTORS
330
5B
102
}
330
5B
100
AcDbMLeaderStyle
179
     2
170
     2
171
     1
172
     0
 90
        2
 40
0.0
 41
0.0
173
     1
 91
-1056964608
340
14
 92
       -2
290
     1
 42
2.0
291
     1
 43
8.0
  3
Standard
341
0
 44
4.0
300

342
11
174
     1
178
     6
175
     1
176
     0
 93
-1056964608
 45
4.0
292
     0
297
     0
 46
4.0
343
0
 94
-1056964608
 47
1.0
 49
1.0
140
1.0
293
     1
141
0.0
294
     1
177
     0
142
1.0
295
     0
296
     0
143
3.75
271
     0
272
     9
273
     9
298
     0
  0
MLINESTYLE
  5
18
102
{ACAD_REACTORS
330
17
102
}
330
17
100
AcDbMlineStyle
  2
Standard
 70
     0
  3

 62
   256
 51
90.0
 52
90.0
 71
     2
 49
0.5
 62
   256
  6
BYLAYER
 49
-0.5
 62
   256
  6
BYLAYER
  0
ACDBPLACEHOLDER
  5
F
102
{ACAD_REACTORS
330
E
102
}
330
E
  0
SCALE
  5
48
102
{ACAD_REACTORS
330
47
102
}
330
47
100
AcDbScale
 70
     0
300
1:1
140
1.0
141
1.0
290
     1
  0
SCALE
  5
49
102
{ACAD_REACTORS
330
47
102
}
330
47
100
AcDbScale
 70
     0
300
1:2
140
1.0
141
2.0
290
     0
  0
SCALE
  5
4A
102
{ACAD_REACTORS
330
47
102
}
330
47
100
AcDbScale
 70
     0
300
1:4
140
1.0
141
4.0
290
     0
  0
SCALE
  5
4B
102
{ACAD_REACTORS
330
47
102
}
330
47
100
AcDbScale
 70
     0
300
1:5
140
1.0
141
5.0
290
     0
  0
SCALE
  5
4C
102
{ACAD_REACTORS
330
47
102
}
330
47
100
AcDbScale
 70
     0
300
1:8
140
1.0
141
8.0
290
     0
  0
SCALE
  5
4D
102
{ACAD_REACTORS
330
47
102
}
330
47
100
AcDbScale
 70
     0
300
1:10
140
1.0
141
10.0
290
     0
  0
SCALE
  5
4E
102
{ACAD_REACTORS
330
47
102
}
330
47
100
AcDbScale
 70
     0
300
1:16
140
1.0
141
16.0
290
     0
  0
SCALE
  5
4F
102
{ACAD_REACTORS
330
47
102
}
330
47
100
AcDbScale
 70
     0
300
1:20
140
1.0
141
20.0
290
     0
  0
SCALE
  5
50
102
{ACAD_REACTORS
330
47
102
}
330
47
100
AcDbScale
 70
     0
300
1:30
140
1.0
141
30.0
290
     0
  0
SCALE
  5
51
102
{ACAD_REACTORS
330
47
102
}
330
47
100
AcDbScale
 70
     0
300
1:40
140
1.0
141
40.0
290
     0
  0
SCALE
  5
52
102
{ACAD_REACTORS
330
47
102
}
330
47
100
AcDbScale
 70
     0
300
1:50
140
1.0
141
50.0
290
     0
  0
SCALE
  5
53
102
{ACAD_REACTORS
330
47
102
}
330
47
100
AcDbScale
 70
     0
300
1:100
140
1.0
141
100.0
290
     0
  0
SCALE
  5
54
102
{ACAD_REACTORS
330
47
102
}
330
47
100
AcDbScale
 70
     0
300
2:1
140
2.0
141
1.0
290
     0
  0
SCALE
  5
55
102
{ACAD_REACTORS
330
47
102
}
330
47
100
AcDbScale
 70
     0
300
4:1
140
4.0
141
1.0
290
     0
  0
SCALE
  5
56
102
{ACAD_REACTORS
330
47
102
}
330
47
100
AcDbScale
 70
     0
300
8:1
140
8.0
141
1.0
290
     0
  0
SCALE
  5
57
102
{ACAD_REACTORS
330
47
102
}
330
47
100
AcDbScale
 70
     0
300
10:1
140
10.0
141
1.0
290
     0
  0
SCALE
  5
58
102
{ACAD_REACTORS
330
47
102
}
330
47
100
AcDbScale
 70
     0
300
100:1
140
100.0
141
1.0
290
     0
  0
TABLESTYLE
  5
5A
102
{ACAD_REACTORS
330
59
102
}
102
{ACAD_XDICTIONARY
360
91
102
}
330
59
100
AcDbTableStyle
  3
Standard
 70
     0
 71
     0
 40
0.06
 41
0.06
280
     0
281
     0
  7
Standard
140
4.5
170
     2
 62
     0
 63
   257
283
     0
 90
        4
 91
        0
  1

274
    -2
284
     1
 64
     0
275
    -2
285
     1
 65
     0
276
    -2
286
     1
 66
     0
277
    -2
287
     1
 67
     0
278
    -2
288
     1
 68
     0
279
    -2
289
     1
 69
     0
  7
Standard
140
6.0
170
     5
 62
     0
 63
   257
283
     0
 90
        4
 91
        0
  1

274
    -2
284
     1
 64
     0
275
    -2
285
     1
 65
     0
276
    -2
286
     1
 66
     0
277
    -2
287
     1
 67
     0
278
    -2
288
     1
 68
     0
279
    -2
289
     1
 69
     0
  7
Standard
140
4.5
170
     5
 62
     0
 63
   257
283
     0
 90
        4
 91
        0
  1

274
    -2
284
     1
 64
     0
275
    -2
285
     1
 65
     0
276
    -2
286
     1
 66
     0
277
    -2
287
     1
 67
     0
278
    -2
288
     1
 68
     0
279
    -2
289
     1
 69
     0
  0
VISUALSTYLE
  5
2F
102
{ACAD_REACTORS
330
2A
102
}
330
2A
100
AcDbVisualStyle
  2
2dWireframe
 70
     4
177
     3
291
     0
 70
    58
 90
        0
176
     1
 90
        2
176
     1
 90
        0
176
     1
 90
        0
176
     1
 40
0.6
176
     1
 40
30.0
176
     1
 62
     7
420
 16777215
176
     1
 90
        1
176
     1
 90
        4
176
     1
 62
     7
176
     1
 62
   257
176
     1
 90
        1
176
     1
 90
        1
176
     1
 40
1.0
176
     1
 90
        0
176
     1
 62
   257
176
     1
 40
1.0
176
     1
 90
        1
176
     1
 90
        6
176
     1
 90
        2
176
     1
 62
     7
176
     1
 90
        5
176
     1
 90
        0
176
     1
 90
        0
176
     1
290
     0
176
     1
 90
        1
176
     1
 40
0.0
176
     1
 90
        0
176
     1
290
     1
176
     1
290
     1
176
     1
290
     0
176
     1
290
     0
176
     1
290
     0
176
     1
290
     0
176
     1
290
     0
176
     1
290
     0
176
     1
290
     0
176
     1
 90
       50
176
     1
 40
0.0
176
     1
 40
1.0
176
     1
 90
        0
176
     1
 62
    18
420
        0
176
     1
 90
       50
176
     1
 90
        3
176
     1
 62
     5
420
      255
176
     1
290
     0
176
     1
 90
       50
176
     1
 90
       50
176
     1
 90
       50
176
     1
290
     0
176
     1
 90
       50
176
     1
 62
   256
176
     0
 40
1.0
176
     0
 90
        2
176
     1
  1
strokes_ogs.tif
176
     1
290
     0
176
     1
 40
1.0
176
     1
 40
1.0
176
     1
  0
VISUALSTYLE
  5
32
102
{ACAD_REACTORS
330
2A
102
}
330
2A
100
AcDbVisualStyle
  2
Basic
 70
     7
177
     3
291
     1
 70
    58
 90
        1
176
     1
 90
        0
176
     1
 90
        1
176
     1
 90
        0
176
     1
 40
0.6
176
     1
 40
30.0
176
     1
 62
     7
420
 16777215
176
     1
 90
        0
176
     1
 90
        4
176
     1
 62
     7
176
     1
 62
   257
176
     1
 90
        1
176
     1
 90
        1
176
     1
 40
1.0
176
     1
 90
        8
176
     1
 62
     7
176
     1
 40
1.0
176
     1
 90
        1
176
     1
 90
        6
176
     1
 90
        2
176
     1
 62
     7
176
     1
 90
        5
176
     1
 90
        0
176
     1
 90
        0
176
     1
290
     0
176
     1
 90
        1
176
     1
 40
0.0
176
     1
 90
        0
176
     1
290
     0
176
     1
290
     1
176
     1
290
     1
176
     1
290
     0
176
     1
290
     0
176
     1
290
     0
176
     1
290
     0
176
     1
290
     0
176
     1
290
     0
176
     1
 90
       50
176
     1
 40
0.0
176
     1
 40
1.0
176
     1
 90
        0
176
     1
 62
    18
420
        0
176
     1
 90
       50
176
     1
 90
        3
176
     1
 62
     5
420
      255
176
     1
290
     0
176
     1
 90
       50
176
     1
 90
       50
176
     1
 90
       50
176
     1
290
     0
176
     1
 90
       50
176
     1
 62
   256
176
     0
 40
1.0
176
     0
 90
        2
176
     1
  1
strokes_ogs.tif
176
     1
290
     0
176
     1
 40
1.0
176
     1
 40
1.0
176
     1
  0
VISUALSTYLE
  5
36
102
{ACAD_REACTORS
330
2A
102
}
330
2A
100
AcDbVisualStyle
  2
Brighten
 70
    12
177
     3
291
     1
 70
    58
 90
        2
176
     1
 90
        2
176
     1
 90
        0
176
     1
 90
        0
176
     1
 40
0.6
176
     1
 40
30.0
176
     1
 62
     7
420
 16777215
176
     1
 90
        1
176
     1
 90
        4
176
     1
 62
     7
176
     1
 62
   257
176
     1
 90
        1
176
     1
 90
        1
176
     1
 40
1.0
176
     1
 90
        8
176
     1
 62
     7
176
     1
 40
1.0
176
     1
 90
        1
176
     1
 90
        6
176
     1
 90
        2
176
     1
 62
     7
176
     1
 90
        5
176
     1
 90
        0
176
     1
 90
        0
176
     1
290
     0
176
     1
 90
        1
176
     1
 40
50.0
176
     1
 90
        0
176
     1
290
     0
176
     1
290
     1
176
     1
290
     1
176
     1
290
     0
176
     1
290
     0
176
     1
290
     0
176
     1
290
     0
176
     1
290
     0
176
     1
290
     0
176
     1
 90
       50
176
     1
 40
0.0
176
     1
 40
1.0
176
     1
 90
        0
176
     1
 62
    18
420
        0
176
     1
 90
       50
176
     1
 90
        3
176
     1
 62
     5
420
      255
176
     1
290
     0
176
     1
 90
       50
176
     1
 90
       50
176
     1
 90
       50
176
     1
290
     0
176
     1
 90
       50
176
     1
 62
   256
176
     0
 40
1.0
176
     0
 90
        2
176
     1
  1
strokes_ogs.tif
176
     1
290
     0
176
     1
 40
1.0
176
     1
 40
1.0
176
     1
  0
VISUALSTYLE
  5
3A
102
{ACAD_REACTORS
330
2A
102
}
330
2A
100
AcDbVisualStyle
  2
ColorChange
 70
    16
177
     3
291
     1
 70
    58
 90
        2
176
     1
 90
        2
176
     1
 90
        3
176
     1
 90
        0
176
     1
 40
0.6
176
     1
 40
30.0
176
     1
 62
     8
420
  8421504
176
     1
 90
        1
176
     1
 90
        4
176
     1
 62
     7
176
     1
 62
   257
176
     1
 90
        1
176
     1
 90
        1
176
     1
 40
1.0
176
     1
 90
        8
176
     1
 62
     8
420
  8421504
176
     1
 40
1.0
176
     1
 90
        1
176
     1
 90
        6
176
     1
 90
        2
176
     1
 62
     7
176
     1
 90
        5
176
     1
 90
        0
176
     1
 90
        0
176
     1
290
     0
176
     1
 90
        1
176
     1
 40
0.0
176
     1
 90
        0
176
     1
290
     0
176
     1
290
     1
176
     1
290
     1
176
     1
290
     0
176
     1
290
     0
176
     1
290
     0
176
     1
290
     0
176
     1
290
     0
176
     1
290
     0
176
     1
 90
       50
176
     1
 40
0.0
176
     1
 40
1.0
176
     1
 90
        0
176
     1
 62
    18
420
        0
176
     1
 90
       50
176
     1
 90
        3
176
     1
 62
     5
420
      255
176
     1
290
     0
176
     1
 90
       50
176
     1
 90
       50
176
     1
 90
       50
176
     1
290
     0
176
     1
 90
       50
176
     1
 62
   256
176
     0
 40
1.0
176
     0
 90
        2
176
     1
  1
strokes_ogs.tif
176
     1
290
     0
176
     1
 40
1.0
176
     1
 40
1.0
176
     1
  0
VISUALSTYLE
  5
34
102
{ACAD_REACTORS
330
2A
102
}
330
2A
100
AcDbVisualStyle
  2
Conceptual
 70
     9
177
     3
291
     0
 70
    58
 90
        3
176
     1
 90
        2
176
     1
 90
        0
176
     1
 90
        0
176
     1
 40
0.6
176
     1
 40
30.0
176
     1
 62
     7
420
 16777215
176
     1
 90
        2
176
     1
 90
        2
176
     1
 62
     7
176
     1
 62
   257
176
     1
 90
        1
176
     1
 90
        1
176
     1
 40
179.0
176
     1
 90
        8
176
     1
 62
     7
176
     1
 40
1.0
176
     1
 90
        1
176
     1
 90
        6
176
     1
 90
        2
176
     1
 62
     7
176
     1
 90
        3
176
     1
 90
        0
176
     1
 90
        0
176
     1
290
     0
176
     1
 90
        1
176
     1
 40
0.0
176
     1
 90
        0
176
     1
290
     0
176
     1
290
     1
176
     1
290
     1
176
     1
290
     0
176
     1
290
     0
176
     1
290
     0
176
     1
290
     0
176
     1
290
     0
176
     1
290
     0
176
     1
 90
       50
176
     1
 40
0.0
176
     1
 40
1.0
176
     1
 90
        0
176
     1
 62
    18
420
        0
176
     1
 90
       50
176
     1
 90
        3
176
     1
 62
     5
420
      255
176
     1
290
     0
176
     1
 90
       50
176
     1
 90
       50
176
     1
 90
       50
176
     1
290
     0
176
     1
 90
       50
176
     1
 62
   256
176
     0
 40
1.0
176
     0
 90
        2
176
     1
  1
strokes_ogs.tif
176
     1
290
     0
176
     1
 40
1.0
176
     1
 40
1.0
176
     1
  0
VISUALSTYLE
  5
35
102
{ACAD_REACTORS
330
2A
102
}
330
2A
100
AcDbVisualStyle
  2
Dim
 70
    11
177
     3
291
     1
 70
    58
 90
        2
176
     1
 90
        2
176
     1
 90
        0
176
     1
 90
        0
176
     1
 40
0.6
176
     1
 40
30.0
176
     1
 62
     7
420
 16777215
176
     1
 90
        1
176
     1
 90
        4
176
     1
 62
     7
176
     1
 62
   257
176
     1
 90
        1
176
     1
 90
        1
176
     1
 40
1.0
176
     1
 90
        8
176
     1
 62
     7
176
     1
 40
1.0
176
     1
 90
        1
176
     1
 90
        6
176
     1
 90
        2
176
     1
 62
     7
176
     1
 90
        5
176
     1
 90
        0
176
     1
 90
        0
176
     1
290
     0
176
     1
 90
        1
176
     1
 40
-50.0
176
     1
 90
        0
176
     1
290
     0
176
     1
290
     1
176
     1
290
     1
176
     1
290
     0
176
     1
290
     0
176
     1
290
     0
176
     1
290
     0
176
     1
290
     0
176
     1
290
     0
176
     1
 90
       50
176
     1
 40
0.0
176
     1
 40
1.0
176
     1
 90
        0
176
     1
 62
    18
420
        0
176
     1
 90
       50
176
     1
 90
        3
176
     1
 62
     5
420
      255
176
     1
290
     0
176
     1
 90
       50
176
     1
 90
       50
176
     1
 90
       50
176
     1
290
     0
176
     1
 90
       50
176
     1
 62
   256
176
     0
 40
1.0
176
     0
 90
        2
176
     1
  1
strokes_ogs.tif
176
     1
290
     0
176
     1
 40
1.0
176
     1
 40
1.0
176
     1
  0
VISUALSTYLE
  5
3D
102
{ACAD_REACTORS
330
2A
102
}
330
2A
100
AcDbVisualStyle
  2
EdgeColorOff
 70
    22
177
     3
291
     1
 70
    58
 90
        2
176
     0
 90
        2
176
     0
 90
        0
176
     0
 90
        0
176
     0
 40
0.6
176
     0
 40
30.0
176
     0
 62
     7
420
 16777215
176
     0
 90
        1
176
     0
 90
        4
176
     0
 62
     7
176
     0
 62
   257
176
     0
 90
        1
176
     0
 90
        1
176
     0
 40
1.0
176
     0
 90
        8
176
     2
 62
     7
176
     0
 40
1.0
176
     0
 90
        1
176
     0
 90
        6
176
     0
 90
        2
176
     0
 62
     7
176
     0
 90
        5
176
     0
 90
        0
176
     0
 90
        0
176
     0
290
     0
176
     0
 90
        1
176
     0
 40
0.0
176
     0
 90
        0
176
     0
290
     0
176
     0
290
     1
176
     0
290
     1
176
     0
290
     0
176
     0
290
     0
176
     0
290
     0
176
     0
290
     0
176
     0
290
     0
176
     0
290
     0
176
     0
 90
       50
176
     0
 40
0.0
176
     0
 40
1.0
176
     0
 90
        0
176
     0
 62
    18
420
        0
176
     0
 90
       50
176
     0
 90
        3
176
     0
 62
     5
420
      255
176
     0
290
     0
176
     0
 90
       50
176
     0
 90
       50
176
     0
 90
       50
176
     0
290
     0
176
     0
 90
       50
176
     0
 62
   256
176
     0
 40
1.0
176
     0
 90
        2
176
     0
  1
strokes_ogs.tif
176
     0
290
     0
176
     0
 40
1.0
176
     0
 40
1.0
176
     0
  0
VISUALSTYLE
  5
39
102
{ACAD_REACTORS
330
2A
102
}
330
2A
100
AcDbVisualStyle
  2
Facepattern
 70
    15
177
     3
291
     1
 70
    58
 90
        2
176
     1
 90
        2
176
     1
 90
        0
176
     1
 90
        0
176
     1
 40
0.6
176
     1
 40
30.0
176
     1
 62
     7
420
 16777215
176
     1
 90
        1
176
     1
 90
        4
176
     1
 62
     7
176
     1
 62
   257
176
     1
 90
        1
176
     1
 90
        1
176
     1
 40
1.0
176
     1
 90
        8
176
     1
 62
     7
176
     1
 40
1.0
176
     1
 90
        1
176
     1
 90
        6
176
     1
 90
        2
176
     1
 62
     7
176
     1
 90
        5
176
     1
 90
        0
176
     1
 90
        0
176
     1
290
     0
176
     1
 90
        1
176
     1
 40
0.0
176
     1
 90
        0
176
     1
290
     0
176
     1
290
     1
176
     1
290
     1
176
     1
290
     0
176
     1
290
     0
176
     1
290
     0
176
     1
290
     0
176
     1
290
     0
176
     1
290
     0
176
     1
 90
       50
176
     1
 40
0.0
176
     1
 40
1.0
176
     1
 90
        0
176
     1
 62
    18
420
        0
176
     1
 90
       50
176
     1
 90
        3
176
     1
 62
     5
420
      255
176
     1
290
     0
176
     1
 90
       50
176
     1
 90
       50
176
     1
 90
       50
176
     1
290
     0
176
     1
 90
       50
176
     1
 62
   256
176
     0
 40
1.0
176
     0
 90
        2
176
     1
  1
strokes_ogs.tif
176
     1
290
     0
176
     1
 40
1.0
176
     1
 40
1.0
176
     1
  0
VISUALSTYLE
  5
2B
102
{ACAD_REACTORS
330
2A
102
}
330
2A
100
AcDbVisualStyle
  2
Flat
 70
     0
177
     3
291
     1
 70
    58
 90
        2
176
     1
 90
        1
176
     1
 90
        1
176
     1
 90
        2
176
     1
 40
0.6
176
     1
 40
30.0
176
     1
 62
     7
420
 16777215
176
     1
 90
        0
176
     1
 90
        0
176
     1
 62
     7
176
     1
 62
   257
176
     1
 90
        1
176
     1
 90
        1
176
     1
 40
1.0
176
     1
 90
        8
176
     1
 62
     7
176
     1
 40
1.0
176
     1
 90
        1
176
     1
 90
        6
176
     1
 90
        2
176
     1
 62
     7
176
     1
 90
        5
176
     1
 90
        0
176
     1
 90
        0
176
     1
290
     0
176
     1
 90
       13
176
     1
 40
0.0
176
     1
 90
        0
176
     1
290
     0
176
     1
290
     1
176
     1
290
     1
176
     1
290
     0
176
     1
290
     0
176
     1
290
     0
176
     1
290
     0
176
     1
290
     0
176
     1
290
     0
176
     1
 90
       50
176
     1
 40
0.0
176
     1
 40
1.0
176
     1
 90
        0
176
     1
 62
    18
420
        0
176
     1
 90
       50
176
     1
 90
        3
176
     1
 62
     5
420
      255
176
     1
290
     0
176
     1
 90
       50
176
     1
 90
       50
176
     1
 90
       50
176
     1
290
     0
176
     1
 90
       50
176
     1
 62
   256
176
     0
 40
1.0
176
     0
 90
        2
176
     1
  1
strokes_ogs.tif
176
     1
290
     0
176
     1
 40
1.0
176
     1
 40
1.0
176
     1
  0
VISUALSTYLE
  5
2C
102
{ACAD_REACTORS
330
2A
102
}
330
2A
100
AcDbVisualStyle
  2
FlatWithEdges
 70
     1
177
     3
291
     1
 70
    58
 90
        2
176
     1
 90
        1
176
     1
 90
        1
176
     1
 90
        2
176
     1
 40
0.6
176
     1
 40
30.0
176
     1
 62
     7
420
 16777215
176
     1
 90
        1
176
     1
 90
        0
176
     1
 62
     7
176
     1
 62
   257
176
     1
 90
        1
176
     1
 90
        1
176
     1
 40
1.0
176
     1
 90
        0
176
     1
 62
   257
176
     1
 40
1.0
176
     1
 90
        1
176
     1
 90
        6
176
     1
 90
        2
176
     1
 62
     7
176
     1
 90
        5
176
     1
 90
        0
176
     1
 90
        0
176
     1
290
     0
176
     1
 90
       13
176
     1
 40
0.0
176
     1
 90
        0
176
     1
290
     0
176
     1
290
     1
176
     1
290
     1
176
     1
290
     0
176
     1
290
     0
176
     1
290
     0
176
     1
290
     0
176
     1
290
     0
176
     1
290
     0
176
     1
 90
       50
176
     1
 40
0.0
176
     1
 40
1.0
176
     1
 90
        0
176
     1
 62
    18
420
        0
176
     1
 90
       50
176
     1
 90
        3
176
     1
 62
     5
420
      255
176
     1
290
     0
176
     1
 90
       50
176
     1
 90
       50
176
     1
 90
       50
176
     1
290
     0
176
     1
 90
       50
176
     1
 62
   256
176
     0
 40
1.0
176
     0
 90
        2
176
     1
  1
strokes_ogs.tif
176
     1
290
     0
176
     1
 40
1.0
176
     1
 40
1.0
176
     1
  0
VISUALSTYLE
  5
2D
102
{ACAD_REACTORS
330
2A
102
}
330
2A
100
AcDbVisualStyle
  2
Gouraud
 70
     2
177
     3
291
     1
 70
    58
 90
        2
176
     1
 90
        2
176
     1
 90
        1
176
     1
 90
        2
176
     1
 40
0.6
176
     1
 40
30.0
176
     1
 62
     7
420
 16777215
176
     1
 90
        0
176
     1
 90
        0
176
     1
 62
     7
176
     1
 62
   257
176
     1
 90
        1
176
     1
 90
        1
176
     1
 40
1.0
176
     1
 90
        0
176
     1
 62
     7
176
     1
 40
1.0
176
     1
 90
        1
176
     1
 90
        6
176
     1
 90
        2
176
     1
 62
     7
176
     1
 90
        5
176
     1
 90
        0
176
     1
 90
        0
176
     1
290
     0
176
     1
 90
       13
176
     1
 40
0.0
176
     1
 90
        0
176
     1
290
     0
176
     1
290
     1
176
     1
290
     1
176
     1
290
     0
176
     1
290
     0
176
     1
290
     0
176
     1
290
     0
176
     1
290
     0
176
     1
290
     0
176
     1
 90
       50
176
     1
 40
0.0
176
     1
 40
1.0
176
     1
 90
        0
176
     1
 62
    18
420
        0
176
     1
 90
       50
176
     1
 90
        3
176
     1
 62
     5
420
      255
176
     1
290
     0
176
     1
 90
       50
176
     1
 90
       50
176
     1
 90
       50
176
     1
290
     0
176
     1
 90
       50
176
     1
 62
   256
176
     0
 40
1.0
176
     0
 90
        2
176
     1
  1
strokes_ogs.tif
176
     1
290
     0
176
     1
 40
1.0
176
     1
 40
1.0
176
     1
  0
VISUALSTYLE
  5
2E
102
{ACAD_REACTORS
330
2A
102
}
330
2A
100
AcDbVisualStyle
  2
GouraudWithEdges
 70
     3
177
     3
291
     1
 70
    58
 90
        2
176
     1
 90
        2
176
     1
 90
        1
176
     1
 90
        2
176
     1
 40
0.6
176
     1
 40
30.0
176
     1
 62
     7
420
 16777215
176
     1
 90
        1
176
     1
 90
        0
176
     1
 62
     7
176
     1
 62
   257
176
     1
 90
        1
176
     1
 90
        1
176
     1
 40
1.0
176
     1
 90
        0
176
     1
 62
   257
176
     1
 40
1.0
176
     1
 90
        1
176
     1
 90
        6
176
     1
 90
        2
176
     1
 62
     7
176
     1
 90
        5
176
     1
 90
        0
176
     1
 90
        0
176
     1
290
     0
176
     1
 90
       13
176
     1
 40
0.0
176
     1
 90
        0
176
     1
290
     0
176
     1
290
     1
176
     1
290
     1
176
     1
290
     0
176
     1
290
     0
176
     1
290
     0
176
     1
290
     0
176
     1
290
     0
176
     1
290
     0
176
     1
 90
       50
176
     1
 40
0.0
176
     1
 40
1.0
176
     1
 90
        0
176
     1
 62
    18
420
        0
176
     1
 90
       50
176
     1
 90
        3
176
     1
 62
     5
420
      255
176
     1
290
     0
176
     1
 90
       50
176
     1
 90
       50
176
     1
 90
       50
176
     1
290
     0
176
     1
 90
       50
176
     1
 62
   256
176
     0
 40
1.0
176
     0
 90
        2
176
     1
  1
strokes_ogs.tif
176
     1
290
     0
176
     1
 40
1.0
176
     1
 40
1.0
176
     1
  0
VISUALSTYLE
  5
31
102
{ACAD_REACTORS
330
2A
102
}
330
2A
100
AcDbVisualStyle
  2
Hidden
 70
     6
177
     3
291
     0
 70
    58
 90
        1
176
     1
 90
        2
176
     1
 90
        2
176
     1
 90
        0
176
     1
 40
0.6
176
     1
 40
30.0
176
     1
 62
     7
420
 16777215
176
     1
 90
        2
176
     1
 90
        2
176
     1
 62
     7
176
     1
 62
   257
176
     1
 90
        2
176
     1
 90
        1
176
     1
 40
40.0
176
     1
 90
        0
176
     1
 62
   257
176
     1
 40
1.0
176
     1
 90
        1
176
     1
 90
        6
176
     1
 90
        2
176
     1
 62
     7
176
     1
 90
        3
176
     1
 90
        0
176
     1
 90
        0
176
     1
290
     0
176
     1
 90
        1
176
     1
 40
0.0
176
     1
 90
        0
176
     1
290
     0
176
     1
290
     1
176
     1
290
     1
176
     1
290
     0
176
     1
290
     0
176
     1
290
     0
176
     1
290
     0
176
     1
290
     0
176
     1
290
     0
176
     1
 90
       50
176
     1
 40
0.0
176
     1
 40
1.0
176
     1
 90
        0
176
     1
 62
    18
420
        0
176
     1
 90
       50
176
     1
 90
        3
176
     1
 62
     5
420
      255
176
     1
290
     0
176
     1
 90
       50
176
     1
 90
       50
176
     1
 90
       50
176
     1
290
     0
176
     1
 90
       50
176
     1
 62
   256
176
     0
 40
1.0
176
     0
 90
        2
176
     1
  1
strokes_ogs.tif
176
     1
290
     0
176
     1
 40
1.0
176
     1
 40
1.0
176
     1
  0
VISUALSTYLE
  5
3B
102
{ACAD_REACTORS
330
2A
102
}
330
2A
100
AcDbVisualStyle
  2
JitterOff
 70
    20
177
     3
291
     1
 70
    58
 90
        2
176
     0
 90
        2
176
     0
 90
        0
176
     0
 90
        0
176
     0
 40
0.6
176
     0
 40
30.0
176
     0
 62
     7
420
 16777215
176
     0
 90
        1
176
     0
 90
        4
176
     0
 62
     7
176
     0
 62
   257
176
     0
 90
        1
176
     0
 90
        1
176
     0
 40
1.0
176
     0
 90
       10
176
     2
 62
     7
176
     0
 40
1.0
176
     0
 90
        1
176
     0
 90
        6
176
     0
 90
        2
176
     0
 62
     7
176
     0
 90
        5
176
     0
 90
        0
176
     0
 90
        0
176
     0
290
     0
176
     0
 90
        1
176
     0
 40
0.0
176
     0
 90
        0
176
     0
290
     0
176
     0
290
     1
176
     0
290
     1
176
     0
290
     0
176
     0
290
     0
176
     0
290
     0
176
     0
290
     0
176
     0
290
     0
176
     0
290
     0
176
     0
 90
       50
176
     0
 40
0.0
176
     0
 40
1.0
176
     0
 90
        0
176
     0
 62
    18
420
        0
176
     0
 90
       50
176
     0
 90
        3
176
     0
 62
     5
420
      255
176
     0
290
     0
176
     0
 90
       50
176
     0
 90
       50
176
     0
 90
       50
176
     0
290
     0
176
     0
 90
       50
176
     0
 62
   256
176
     0
 40
1.0
176
     0
 90
        2
176
     0
  1
strokes_ogs.tif
176
     0
290
     0
176
     0
 40
1.0
176
     0
 40
1.0
176
     0
  0
VISUALSTYLE
  5
38
102
{ACAD_REACTORS
330
2A
102
}
330
2A
100
AcDbVisualStyle
  2
Linepattern
 70
    14
177
     3
291
     1
 70
    58
 90
        2
176
     1
 90
        2
176
     1
 90
        0
176
     1
 90
        0
176
     1
 40
0.6
176
     1
 40
30.0
176
     1
 62
     7
420
 16777215
176
     1
 90
        1
176
     1
 90
        4
176
     1
 62
     7
176
     1
 62
   257
176
     1
 90
        7
176
     1
 90
        7
176
     1
 40
1.0
176
     1
 90
        8
176
     1
 62
     7
176
     1
 40
1.0
176
     1
 90
        1
176
     1
 90
        6
176
     1
 90
        2
176
     1
 62
     7
176
     1
 90
        5
176
     1
 90
        0
176
     1
 90
        0
176
     1
290
     0
176
     1
 90
        1
176
     1
 40
0.0
176
     1
 90
        0
176
     1
290
     0
176
     1
290
     1
176
     1
290
     1
176
     1
290
     0
176
     1
290
     0
176
     1
290
     0
176
     1
290
     0
176
     1
290
     0
176
     1
290
     0
176
     1
 90
       50
176
     1
 40
0.0
176
     1
 40
1.0
176
     1
 90
        0
176
     1
 62
    18
420
        0
176
     1
 90
       50
176
     1
 90
        3
176
     1
 62
     5
420
      255
176
     1
290
     0
176
     1
 90
       50
176
     1
 90
       50
176
     1
 90
       50
176
     1
290
     0
176
     1
 90
       50
176
     1
 62
   256
176
     0
 40
1.0
176
     0
 90
        2
176
     1
  1
strokes_ogs.tif
176
     1
290
     0
176
     1
 40
1.0
176
     1
 40
1.0
176
     1
  0
VISUALSTYLE
  5
3C
102
{ACAD_REACTORS
330
2A
102
}
330
2A
100
AcDbVisualStyle
  2
OverhangOff
 70
    21
177
     3
291
     1
 70
    58
 90
        2
176
     0
 90
        2
176
     0
 90
        0
176
     0
 90
        0
176
     0
 40
0.6
176
     0
 40
30.0
176
     0
 62
     7
420
 16777215
176
     0
 90
        1
176
     0
 90
        4
176
     0
 62
     7
176
     0
 62
   257
176
     0
 90
        1
176
     0
 90
        1
176
     0
 40
1.0
176
     0
 90
        9
176
     2
 62
     7
176
     0
 40
1.0
176
     0
 90
        1
176
     0
 90
        6
176
     0
 90
        2
176
     0
 62
     7
176
     0
 90
        5
176
     0
 90
        0
176
     0
 90
        0
176
     0
290
     0
176
     0
 90
        1
176
     0
 40
0.0
176
     0
 90
        0
176
     0
290
     0
176
     0
290
     1
176
     0
290
     1
176
     0
290
     0
176
     0
290
     0
176
     0
290
     0
176
     0
290
     0
176
     0
290
     0
176
     0
290
     0
176
     0
 90
       50
176
     0
 40
0.0
176
     0
 40
1.0
176
     0
 90
        0
176
     0
 62
    18
420
        0
176
     0
 90
       50
176
     0
 90
        3
176
     0
 62
     5
420
      255
176
     0
290
     0
176
     0
 90
       50
176
     0
 90
       50
176
     0
 90
       50
176
     0
290
     0
176
     0
 90
       50
176
     0
 62
   256
176
     0
 40
1.0
176
     0
 90
        2
176
     0
  1
strokes_ogs.tif
176
     0
290
     0
176
     0
 40
1.0
176
     0
 40
1.0
176
     0
  0
VISUALSTYLE
  5
33
102
{ACAD_REACTORS
330
2A
102
}
330
2A
100
AcDbVisualStyle
  2
Realistic
 70
     8
177
     3
291
     0
 70
    58
 90
        2
176
     1
 90
        3
176
     1
 90
        0
176
     1
 90
        2
176
     1
 40
0.6
176
     1
 40
30.0
176
     1
 62
     7
420
 16777215
176
     1
 90
        0
176
     1
 90
        0
176
     1
 62
     7
176
     1
 62
   257
176
     1
 90
        1
176
     1
 90
        1
176
     1
 40
1.0
176
     1
 90
        8
176
     1
 62
   257
176
     1
 40
1.0
176
     1
 90
        1
176
     1
 90
        6
176
     1
 90
        2
176
     1
 62
     7
176
     1
 90
        3
176
     1
 90
        0
176
     1
 90
        0
176
     1
290
     0
176
     1
 90
       13
176
     1
 40
0.0
176
     1
 90
        0
176
     1
290
     0
176
     1
290
     1
176
     1
290
     1
176
     1
290
     0
176
     1
290
     0
176
     1
290
     0
176
     1
290
     0
176
     1
290
     0
176
     1
290
     0
176
     1
 90
       50
176
     1
 40
0.0
176
     1
 40
1.0
176
     1
 90
        0
176
     1
 62
    18
420
        0
176
     1
 90
       50
176
     1
 90
        3
176
     1
 62
     5
420
      255
176
     1
290
     0
176
     1
 90
       50
176
     1
 90
       50
176
     1
 90
       50
176
     1
290
     0
176
     1
 90
       50
176
     1
 62
   256
176
     0
 40
1.0
176
     0
 90
        2
176
     1
  1
strokes_ogs.tif
176
     1
290
     0
176
     1
 40
1.0
176
     1
 40
1.0
176
     1
  0
VISUALSTYLE
  5
42
102
{ACAD_REACTORS
330
2A
102
}
330
2A
100
AcDbVisualStyle
  2
Shaded
 70
    27
177
     3
291
     0
 70
    58
 90
        2
176
     1
 90
        2
176
     1
 90
        1
176
     1
 90
        2
176
     1
 40
0.6
176
     1
 40
30.0
176
     1
 62
     7
420
 16777215
176
     1
 90
        0
176
     1
 90
        4
176
     1
 62
     7
176
     1
 62
   257
176
     1
 90
        1
176
     1
 90
        1
176
     1
 40
1.0
176
     1
 90
        8
176
     1
 62
   257
176
     1
 40
1.0
176
     1
 90
        1
176
     1
 90
        6
176
     1
 90
        2
176
     1
 62
     8
420
  7895160
176
     1
 90
        3
176
     1
 90
        0
176
     1
 90
        0
176
     1
290
     0
176
     1
 90
        5
176
     1
 40
0.0
176
     1
 90
        0
176
     1
290
     0
176
     1
290
     1
176
     1
290
     1
176
     1
290
     0
176
     1
290
     0
176
     1
290
     0
176
     1
290
     0
176
     1
290
     0
176
     1
290
     0
176
     1
 90
       50
176
     1
 40
0.0
176
     1
 40
1.0
176
     1
 90
        0
176
     1
 62
    18
420
        0
176
     1
 90
       50
176
     1
 90
        3
176
     1
 62
     5
420
      255
176
     1
290
     0
176
     1
 90
       50
176
     1
 90
       50
176
     1
 90
       50
176
     1
290
     0
176
     1
 90
       50
176
     1
 62
   256
176
     0
 40
1.0
176
     0
 90
        2
176
     1
  1
strokes_ogs.tif
176
     1
290
     0
176
     1
 40
1.0
176
     1
 40
1.0
176
     1
  0
VISUALSTYLE
  5
41
102
{ACAD_REACTORS
330
2A
102
}
330
2A
100
AcDbVisualStyle
  2
Shaded with edges
 70
    26
177
     3
291
     0
 70
    58
 90
        2
176
     1
 90
        2
176
     1
 90
        1
176
     1
 90
        2
176
     1
 40
0.6
176
     1
 40
30.0
176
     1
 62
     7
420
 16777215
176
     1
 90
        1
176
     1
 90
       10
176
     1
 62
     7
176
     1
 62
   257
176
     1
 90
        2
176
     1
 90
        1
176
     1
 40
1.0
176
     1
 90
        8
176
     1
 62
   257
176
     1
 40
1.0
176
     1
 90
        1
176
     1
 90
        6
176
     1
 90
        2
176
     1
 62
     7
176
     1
 90
        3
176
     1
 90
        0
176
     1
 90
        0
176
     1
290
     0
176
     1
 90
        5
176
     1
 40
0.0
176
     1
 90
        0
176
     1
290
     0
176
     1
290
     1
176
     1
290
     1
176
     1
290
     0
176
     1
290
     0
176
     1
290
     0
176
     1
290
     0
176
     1
290
     0
176
     1
290
     0
176
     1
 90
       50
176
     1
 40
0.0
176
     1
 40
1.0
176
     1
 90
        0
176
     1
 62
    18
420
        0
176
     1
 90
       50
176
     1
 90
        3
176
     1
 62
     5
420
      255
176
     1
290
     0
176
     1
 90
       50
176
     1
 90
       50
176
     1
 90
       50
176
     1
290
     0
176
     1
 90
       50
176
     1
 62
   256
176
     0
 40
1.0
176
     0
 90
        2
176
     1
  1
strokes_ogs.tif
176
     1
290
     0
176
     1
 40
1.0
176
     1
 40
1.0
176
     1
  0
VISUALSTYLE
  5
3E
102
{ACAD_REACTORS
330
2A
102
}
330
2A
100
AcDbVisualStyle
  2
Shades of Gray
 70
    23
177
     3
291
     0
 70
    58
 90
        2
176
     1
 90
        2
176
     1
 90
        3
176
     1
 90
        0
176
     1
 40
0.6
176
     1
 40
30.0
176
     1
 62
     7
420
 16777215
176
     1
 90
        2
176
     1
 90
        2
176
     1
 62
     7
176
     1
 62
     7
176
     1
 90
        1
176
     1
 90
        1
176
     1
 40
40.0
176
     1
 90
        8
176
     1
 62
     7
176
     1
 40
1.0
176
     1
 90
        1
176
     1
 90
        6
176
     1
 90
        2
176
     1
 62
     7
176
     1
 90
        3
176
     1
 90
        0
176
     1
 90
        0
176
     1
290
     0
176
     1
 90
        1
176
     1
 40
0.0
176
     1
 90
        0
176
     1
290
     0
176
     1
290
     1
176
     1
290
     1
176
     1
290
     0
176
     1
290
     0
176
     1
290
     0
176
     1
290
     0
176
     1
290
     0
176
     1
290
     0
176
     1
 90
       50
176
     1
 40
0.0
176
     1
 40
1.0
176
     1
 90
        0
176
     1
 62
    18
420
        0
176
     1
 90
       50
176
     1
 90
        3
176
     1
 62
     5
420
      255
176
     1
290
     0
176
     1
 90
       50
176
     1
 90
       50
176
     1
 90
       50
176
     1
290
     0
176
     1
 90
       50
176
     1
 62
   256
176
     0
 40
1.0
176
     0
 90
        2
176
     1
  1
strokes_ogs.tif
176
     1
290
     0
176
     1
 40
1.0
176
     1
 40
1.0
176
     1
  0
VISUALSTYLE
  5
3F
102
{ACAD_REACTORS
330
2A
102
}
330
2A
100
AcDbVisualStyle
  2
Sketchy
 70
    24
177
     3
291
     0
 70
    58
 90
        1
176
     1
 90
        2
176
     1
 90
        2
176
     1
 90
        0
176
     1
 40
0.6
176
     1
 40
30.0
176
     1
 62
     7
420
 16777215
176
     1
 90
        2
176
     1
 90
        2
176
     1
 62
     7
176
     1
 62
     7
176
     1
 90
        1
176
     1
 90
        1
176
     1
 40
40.0
176
     1
 90
       11
176
     1
 62
     7
176
     1
 40
1.0
176
     1
 90
        1
176
     1
 90
        6
176
     1
 90
        2
176
     1
 62
     7
176
     1
 90
        6
176
     1
 90
        0
176
     1
 90
        0
176
     1
290
     0
176
     1
 90
        1
176
     1
 40
0.0
176
     1
 90
        0
176
     1
290
     0
176
     1
290
     1
176
     1
290
     1
176
     1
290
     0
176
     1
290
     0
176
     1
290
     0
176
     1
290
     0
176
     1
290
     0
176
     1
290
     0
176
     1
 90
       50
176
     1
 40
0.0
176
     1
 40
1.0
176
     1
 90
        0
176
     1
 62
    18
420
        0
176
     1
 90
       50
176
     1
 90
        3
176
     1
 62
     5
420
      255
176
     1
290
     0
176
     1
 90
       50
176
     1
 90
       50
176
     1
 90
       50
176
     1
290
     0
176
     1
 90
       50
176
     1
 62
   256
176
     0
 40
1.0
176
     0
 90
        2
176
     1
  1
strokes_ogs.tif
176
     1
290
     0
176
     1
 40
1.0
176
     1
 40
1.0
176
     1
  0
VISUALSTYLE
  5
37
102
{ACAD_REACTORS
330
2A
102
}
330
2A
100
AcDbVisualStyle
  2
Thicken
 70
    13
177
     3
291
     1
 70
    58
 90
        2
176
     1
 90
        2
176
     1
 90
        0
176
     1
 90
        0
176
     1
 40
0.6
176
     1
 40
30.0
176
     1
 62
     7
420
 16777215
176
     1
 90
        1
176
     1
 90
        4
176
     1
 62
     7
176
     1
 62
   257
176
     1
 90
        1
176
     1
 90
        1
176
     1
 40
1.0
176
     1
 90
       12
176
     1
 62
     7
176
     1
 40
1.0
176
     1
 90
        1
176
     1
 90
        6
176
     1
 90
        2
176
     1
 62
     7
176
     1
 90
        5
176
     1
 90
        0
176
     1
 90
        0
176
     1
290
     0
176
     1
 90
        1
176
     1
 40
0.0
176
     1
 90
        0
176
     1
290
     0
176
     1
290
     1
176
     1
290
     1
176
     1
290
     0
176
     1
290
     0
176
     1
290
     0
176
     1
290
     0
176
     1
290
     0
176
     1
290
     0
176
     1
 90
       50
176
     1
 40
0.0
176
     1
 40
1.0
176
     1
 90
        0
176
     1
 62
    18
420
        0
176
     1
 90
       50
176
     1
 90
        3
176
     1
 62
     5
420
      255
176
     1
290
     0
176
     1
 90
       50
176
     1
 90
       50
176
     1
 90
       50
176
     1
290
     0
176
     1
 90
       50
176
     1
 62
   256
176
     0
 40
1.0
176
     0
 90
        2
176
     1
  1
strokes_ogs.tif
176
     1
290
     0
176
     1
 40
1.0
176
     1
 40
1.0
176
     1
  0
VISUALSTYLE
  5
30
102
{ACAD_REACTORS
330
2A
102
}
330
2A
100
AcDbVisualStyle
  2
Wireframe
 70
     5
177
     3
291
     0
 70
    58
 90
        0
176
     1
 90
        2
176
     1
 90
        0
176
     1
 90
        0
176
     1
 40
0.6
176
     1
 40
30.0
176
     1
 62
     7
420
 16777215
176
     1
 90
        1
176
     1
 90
        4
176
     1
 62
     7
176
     1
 62
   257
176
     1
 90
        1
176
     1
 90
        1
176
     1
 40
1.0
176
     1
 90
        0
176
     1
 62
   257
176
     1
 40
1.0
176
     1
 90
        1
176
     1
 90
        6
176
     1
 90
        2
176
     1
 62
     7
176
     1
 90
        3
176
     1
 90
        0
176
     1
 90
        0
176
     1
290
     0
176
     1
 90
        1
176
     1
 40
0.0
176
     1
 90
        0
176
     1
290
     0
176
     1
290
     1
176
     1
290
     1
176
     1
290
     0
176
     1
290
     0
176
     1
290
     0
176
     1
290
     0
176
     1
290
     0
176
     1
290
     0
176
     1
 90
       50
176
     1
 40
0.0
176
     1
 40
1.0
176
     1
 90
        0
176
     1
 62
    18
420
        0
176
     1
 90
       50
176
     1
 90
        3
176
     1
 62
     5
420
      255
176
     1
290
     0
176
     1
 90
       50
176
     1
 90
       50
176
     1
 90
       50
176
     1
290
     0
176
     1
 90
       50
176
     1
 62
   256
176
     0
 40
1.0
176
     0
 90
        2
176
     1
  1
strokes_ogs.tif
176
     1
290
     0
176
     1
 40
1.0
176
     1
 40
1.0
176
     1
  0
VISUALSTYLE
  5
40
102
{ACAD_REACTORS
330
2A
102
}
330
2A
100
AcDbVisualStyle
  2
X-Ray
 70
    25
177
     3
291
     0
 70
    58
 90
        2
176
     1
 90
        2
176
     1
 90
        1
176
     1
 90
        1
176
     1
 40
0.5
176
     1
 40
30.0
176
     1
 62
     7
420
 16777215
176
     1
 90
        1
176
     1
 90
        0
176
     1
 62
     7
176
     1
 62
   257
176
     1
 90
        1
176
     1
 90
        1
176
     1
 40
1.0
176
     1
 90
        8
176
     1
 62
     7
176
     1
 40
1.0
176
     1
 90
        1
176
     1
 90
        6
176
     1
 90
        2
176
     1
 62
     7
176
     1
 90
        3
176
     1
 90
        0
176
     1
 90
        0
176
     1
290
     0
176
     1
 90
       13
176
     1
 40
0.0
176
     1
 90
        0
176
     1
290
     0
176
     1
290
     1
176
     1
290
     1
176
     1
290
     0
176
     1
290
     0
176
     1
290
     0
176
     1
290
     0
176
     1
290
     0
176
     1
290
     0
176
     1
 90
       50
176
     1
 40
0.0
176
     1
 40
1.0
176
     1
 90
        0
176
     1
 62
    18
420
        0
176
     1
 90
       50
176
     1
 90
        3
176
     1
 62
     5
420
      255
176
     1
290
     0
176
     1
 90
       50
176
     1
 90
       50
176
     1
 90
       50
176
     1
290
     0
176
     1
 90
       50
176
     1
 62
   256
176
     0
 40
1.0
176
     0
 90
        2
176
     1
  1
strokes_ogs.tif
176
     1
290
     0
176
     1
 40
1.0
176
     1
 40
1.0
176
     1
  0
DICTIONARYVAR
  5
90
102
{ACAD_REACTORS
330
8F
102
}
330
8F
100
DictionaryVariables
280
     0
  1
1:1
  0
DICTIONARYVAR
  5
98
102
{ACAD_REACTORS
330
8F
102
}
330
8F
100
DictionaryVariables
280
     0
  1
3.500000
  0
DICTIONARYVAR
  5
99
102
{ACAD_REACTORS
330
8F
102
}
330
8F
100
DictionaryVariables
280
     0
  1
acadiso.lin
  0
DICTIONARYVAR
  5
95
102
{ACAD_REACTORS
330
8F
102
}
330
8F
100
DictionaryVariables
280
     0
  1
Standard
  0
DICTIONARYVAR
  5
94
102
{ACAD_REACTORS
330
8F
102
}
330
8F
100
DictionaryVariables
280
     0
  1
Standard
  0
DICTIONARY
  5
91
330
5A
100
AcDbDictionary
280
     1
281
     1
  3
ACAD_ROUNDTRIP_2008_TABLESTYLE_CELLSTYLEMAP
360
92
  0
CELLSTYLEMAP
  5
92
102
{ACAD_REACTORS
330
91
102
}
330
91
100
AcDbCellStyleMap
 90
        3
300
CELLSTYLE
  1
TABLEFORMAT_BEGIN
 90
        5
170
     1
 91
        0
 92
    32768
 62
   257
 93
        1
300
CONTENTFORMAT
  1
CONTENTFORMAT_BEGIN
 90
        0
 91
        0
 92
        4
 93
        0
300

 40
0.0
140
1.0
 94
        5
 62
     0
340
11
144
6.0
309
CONTENTFORMAT_END
171
     1
301
MARGIN
  1
CELLMARGIN_BEGIN
 40
1.5
 40
1.5
 40
1.5
 40
1.5
 40
1.5
 40
1.5
309
CELLMARGIN_END
 94
        6
 95
        1
302
GRIDFORMAT
  1
GRIDFORMAT_BEGIN
 90
        0
 91
        1
 62
     0
 92
       -2
340
14
 93
        0
 40
0.045
309
GRIDFORMAT_END
 95
        2
302
GRIDFORMAT
  1
GRIDFORMAT_BEGIN
 90
        0
 91
        1
 62
     0
 92
       -2
340
14
 93
        0
 40
0.045
309
GRIDFORMAT_END
 95
        4
302
GRIDFORMAT
  1
GRIDFORMAT_BEGIN
 90
        0
 91
        1
 62
     0
 92
       -2
340
14
 93
        0
 40
0.045
309
GRIDFORMAT_END
 95
        8
302
GRIDFORMAT
  1
GRIDFORMAT_BEGIN
 90
        0
 91
        1
 62
     0
 92
       -2
340
14
 93
        0
 40
0.045
309
GRIDFORMAT_END
 95
       16
302
GRIDFORMAT
  1
GRIDFORMAT_BEGIN
 90
        0
 91
        1
 62
     0
 92
       -2
340
14
 93
        0
 40
0.045
309
GRIDFORMAT_END
 95
       32
302
GRIDFORMAT
  1
GRIDFORMAT_BEGIN
 90
        0
 91
        1
 62
     0
 92
       -2
340
14
 93
        0
 40
0.045
309
GRIDFORMAT_END
309
TABLEFORMAT_END
  1
CELLSTYLE_BEGIN
 90
        1
 91
        1
300
_TITLE
309
CELLSTYLE_END
300
CELLSTYLE
  1
TABLEFORMAT_BEGIN
 90
        5
170
     1
 91
        0
 92
        0
 62
   257
 93
        1
300
CONTENTFORMAT
  1
CONTENTFORMAT_BEGIN
 90
        0
 91
        0
 92
        4
 93
        0
300

 40
0.0
140
1.0
 94
        5
 62
     0
340
11
144
4.5
309
CONTENTFORMAT_END
171
     1
301
MARGIN
  1
CELLMARGIN_BEGIN
 40
1.5
 40
1.5
 40
1.5
 40
1.5
 40
1.5
 40
1.5
309
CELLMARGIN_END
 94
        6
 95
        1
302
GRIDFORMAT
  1
GRIDFORMAT_BEGIN
 90
        0
 91
        1
 62
     0
 92
       -2
340
14
 93
        0
 40
0.045
309
GRIDFORMAT_END
 95
        2
302
GRIDFORMAT
  1
GRIDFORMAT_BEGIN
 90
        0
 91
        1
 62
     0
 92
       -2
340
14
 93
        0
 40
0.045
309
GRIDFORMAT_END
 95
        4
302
GRIDFORMAT
  1
GRIDFORMAT_BEGIN
 90
        0
 91
        1
 62
     0
 92
       -2
340
14
 93
        0
 40
0.045
309
GRIDFORMAT_END
 95
        8
302
GRIDFORMAT
  1
GRIDFORMAT_BEGIN
 90
        0
 91
        1
 62
     0
 92
       -2
340
14
 93
        0
 40
0.045
309
GRIDFORMAT_END
 95
       16
302
GRIDFORMAT
  1
GRIDFORMAT_BEGIN
 90
        0
 91
        1
 62
     0
 92
       -2
340
14
 93
        0
 40
0.045
309
GRIDFORMAT_END
 95
       32
302
GRIDFORMAT
  1
GRIDFORMAT_BEGIN
 90
        0
 91
        1
 62
     0
 92
       -2
340
14
 93
        0
 40
0.045
309
GRIDFORMAT_END
309
TABLEFORMAT_END
  1
CELLSTYLE_BEGIN
 90
        2
 91
        1
300
_HEADER
309
CELLSTYLE_END
300
CELLSTYLE
  1
TABLEFORMAT_BEGIN
 90
        5
170
     1
 91
        0
 92
        0
 62
   257
 93
        1
300
CONTENTFORMAT
  1
CONTENTFORMAT_BEGIN
 90
        0
 91
        0
 92
        4
 93
        0
300

 40
0.0
140
1.0
 94
        2
 62
     0
340
11
144
4.5
309
CONTENTFORMAT_END
171
     1
301
MARGIN
  1
CELLMARGIN_BEGIN
 40
1.5
 40
1.5
 40
1.5
 40
1.5
 40
1.5
 40
1.5
309
CELLMARGIN_END
 94
        6
 95
        1
302
GRIDFORMAT
  1
GRIDFORMAT_BEGIN
 90
        0
 91
        1
 62
     0
 92
       -2
340
14
 93
        0
 40
0.045
309
GRIDFORMAT_END
 95
        2
302
GRIDFORMAT
  1
GRIDFORMAT_BEGIN
 90
        0
 91
        1
 62
     0
 92
       -2
340
14
 93
        0
 40
0.045
309
GRIDFORMAT_END
 95
        4
302
GRIDFORMAT
  1
GRIDFORMAT_BEGIN
 90
        0
 91
        1
 62
     0
 92
       -2
340
14
 93
        0
 40
0.045
309
GRIDFORMAT_END
 95
        8
302
GRIDFORMAT
  1
GRIDFORMAT_BEGIN
 90
        0
 91
        1
 62
     0
 92
       -2
340
14
 93
        0
 40
0.045
309
GRIDFORMAT_END
 95
       16
302
GRIDFORMAT
  1
GRIDFORMAT_BEGIN
 90
        0
 91
        1
 62
     0
 92
       -2
340
14
 93
        0
 40
0.045
309
GRIDFORMAT_END
 95
       32
302
GRIDFORMAT
  1
GRIDFORMAT_BEGIN
 90
        0
 91
        1
 62
     0
 92
       -2
340
14
 93
        0
 40
0.045
309
GRIDFORMAT_END
309
TABLEFORMAT_END
  1
CELLSTYLE_BEGIN
 90
        3
 91
        2
300
_DATA
309
CELLSTYLE_END
  0
ENDSEC
  0
EOF
