  0
SECTION
  2
HEADER
  9
$ACADVER
  1
AC1027
  9
$ACADMAINTVER
 70
   105
  9
$DWGCODEPAGE
  3
ANSI_932
  9
$LASTSAVEDBY
  1
a.yasuda
  9
$REQUIREDVERSIONS
160
                 0
  9
$INSBASE
 10
0.0
 20
0.0
 30
0.0
  9
$EXTMIN
 10
0.0
 20
0.0
 30
0.0
  9
$EXTMAX
 10
302.9997823349792
 20
216.0016055409748
 30
0.0
  9
$LIMMIN
 10
0.0
 20
0.0
  9
$LIMMAX
 10
302.9997823349792
 20
216.0016055409748
  9
$ORTHOMODE
 70
     0
  9
$REGENMODE
 70
     1
  9
$FILLMODE
 70
     1
  9
$QTEXTMODE
 70
     0
  9
$MIRRTEXT
 70
     1
  9
$LTSCALE
 40
1.0
  9
$ATTMODE
 70
     1
  9
$TEXTSIZE
 40
2.5
  9
$TRACEWID
 40
1.0
  9
$TEXTSTYLE
  7
Standard
  9
$CLAYER
  8
0
  9
$CELTYPE
  6
ByLayer
  9
$CECOLOR
 62
   256
  9
$CELTSCALE
 40
1.0
  9
$DISPSILH
 70
     0
  9
$DIMSCALE
 40
1.0
  9
$DIMASZ
 40
2.5
  9
$DIMEXO
 40
0.625
  9
$DIMDLI
 40
3.75
  9
$DIMRND
 40
0.0
  9
$DIMDLE
 40
0.0
  9
$DIMEXE
 40
1.25
  9
$DIMTP
 40
0.0
  9
$DIMTM
 40
0.0
  9
$DIMTXT
 40
2.5
  9
$DIMCEN
 40
2.5
  9
$DIMTSZ
 40
0.0
  9
$DIMTOL
 70
     0
  9
$DIMLIM
 70
     0
  9
$DIMTIH
 70
     0
  9
$DIMTOH
 70
     0
  9
$DIMSE1
 70
     0
  9
$DIMSE2
 70
     0
  9
$DIMTAD
 70
     1
  9
$DIMZIN
 70
     8
  9
$DIMBLK
  1

  9
$DIMASO
 70
     1
  9
$DIMSHO
 70
     1
  9
$DIMPOST
  1

  9
$DIMAPOST
  1

  9
$DIMALT
 70
     0
  9
$DIMALTD
 70
     3
  9
$DIMALTF
 40
0.03937007874016
  9
$DIMLFAC
 40
1.0
  9
$DIMTOFL
 70
     1
  9
$DIMTVP
 40
0.0
  9
$DIMTIX
 70
     0
  9
$DIMSOXD
 70
     0
  9
$DIMSAH
 70
     0
  9
$DIMBLK1
  1

  9
$DIMBLK2
  1

  9
$DIMSTYLE
  2
ISO-25
  9
$DIMCLRD
 70
     0
  9
$DIMCLRE
 70
     0
  9
$DIMCLRT
 70
     0
  9
$DIMTFAC
 40
1.0
  9
$DIMGAP
 40
0.625
  9
$DIMJUST
 70
     0
  9
$DIMSD1
 70
     0
  9
$DIMSD2
 70
     0
  9
$DIMTOLJ
 70
     0
  9
$DIMTZIN
 70
     8
  9
$DIMALTZ
 70
     0
  9
$DIMALTTZ
 70
     0
  9
$DIMUPT
 70
     0
  9
$DIMDEC
 70
     2
  9
$DIMTDEC
 70
     2
  9
$DIMALTU
 70
     2
  9
$DIMALTTD
 70
     3
  9
$DIMTXSTY
  7
Standard
  9
$DIMAUNIT
 70
     0
  9
$DIMADEC
 70
     0
  9
$DIMALTRND
 40
0.0
  9
$DIMAZIN
 70
     0
  9
$DIMDSEP
 70
    44
  9
$DIMATFIT
 70
     3
  9
$DIMFRAC
 70
     0
  9
$DIMLDRBLK
  1

  9
$DIMLUNIT
 70
     2
  9
$DIMLWD
 70
    -2
  9
$DIMLWE
 70
    -2
  9
$DIMTMOVE
 70
     0
  9
$DIMFXL
 40
1.0
  9
$DIMFXLON
 70
     0
  9
$DIMJOGANG
 40
0.7853981633974483
  9
$DIMTFILL
 70
     0
  9
$DIMTFILLCLR
 70
     0
  9
$DIMARCSYM
 70
     0
  9
$DIMLTYPE
  6

  9
$DIMLTEX1
  6

  9
$DIMLTEX2
  6

  9
$DIMTXTDIRECTION
 70
     0
  9
$LUNITS
 70
     2
  9
$LUPREC
 70
     4
  9
$SKETCHINC
 40
1.0
  9
$FILLETRAD
 40
0.0
  9
$AUNITS
 70
     0
  9
$AUPREC
 70
     0
  9
$MENU
  1
.
  9
$ELEVATION
 40
0.0
  9
$PELEVATION
 40
0.0
  9
$THICKNESS
 40
0.0
  9
$LIMCHECK
 70
     0
  9
$CHAMFERA
 40
0.0
  9
$CHAMFERB
 40
0.0
  9
$CHAMFERC
 40
0.0
  9
$CHAMFERD
 40
0.0
  9
$SKPOLY
 70
     0
  9
$TDCREATE
 40
2459866.618883692
  9
$TDUCREATE
 40
2459866.243883692
  9
$TDUPDATE
 40
2459866.61888375
  9
$TDUUPDATE
 40
2459866.24388375
  9
$TDINDWG
 40
0.0000000116
  9
$TDUSRTIMER
 40
0.0000000116
  9
$USRTIMER
 70
     1
  9
$ANGBASE
 50
0.0
  9
$ANGDIR
 70
     0
  9
$PDMODE
 70
     0
  9
$PDSIZE
 40
0.0
  9
$PLINEWID
 40
0.0
  9
$SPLFRAME
 70
     0
  9
$SPLINETYPE
 70
     6
  9
$SPLINESEGS
 70
     8
  9
$HANDSEED
  5
AB
  9
$SURFTAB1
 70
     6
  9
$SURFTAB2
 70
     6
  9
$SURFTYPE
 70
     6
  9
$SURFU
 70
     6
  9
$SURFV
 70
     6
  9
$UCSBASE
  2

  9
$UCSNAME
  2

  9
$UCSORG
 10
0.0
 20
0.0
 30
0.0
  9
$UCSXDIR
 10
1.0
 20
0.0
 30
0.0
  9
$UCSYDIR
 10
0.0
 20
1.0
 30
0.0
  9
$UCSORTHOREF
  2

  9
$UCSORTHOVIEW
 70
     0
  9
$UCSORGTOP
 10
0.0
 20
0.0
 30
0.0
  9
$UCSORGBOTTOM
 10
0.0
 20
0.0
 30
0.0
  9
$UCSORGLEFT
 10
0.0
 20
0.0
 30
0.0
  9
$UCSORGRIGHT
 10
0.0
 20
0.0
 30
0.0
  9
$UCSORGFRONT
 10
0.0
 20
0.0
 30
0.0
  9
$UCSORGBACK
 10
0.0
 20
0.0
 30
0.0
  9
$PUCSBASE
  2

  9
$PUCSNAME
  2

  9
$PUCSORG
 10
0.0
 20
0.0
 30
0.0
  9
$PUCSXDIR
 10
1.0
 20
0.0
 30
0.0
  9
$PUCSYDIR
 10
0.0
 20
1.0
 30
0.0
  9
$PUCSORTHOREF
  2

  9
$PUCSORTHOVIEW
 70
     0
  9
$PUCSORGTOP
 10
0.0
 20
0.0
 30
0.0
  9
$PUCSORGBOTTOM
 10
0.0
 20
0.0
 30
0.0
  9
$PUCSORGLEFT
 10
0.0
 20
0.0
 30
0.0
  9
$PUCSORGRIGHT
 10
0.0
 20
0.0
 30
0.0
  9
$PUCSORGFRONT
 10
0.0
 20
0.0
 30
0.0
  9
$PUCSORGBACK
 10
0.0
 20
0.0
 30
0.0
  9
$USERI1
 70
     0
  9
$USERI2
 70
     0
  9
$USERI3
 70
     0
  9
$USERI4
 70
     0
  9
$USERI5
 70
     0
  9
$USERR1
 40
0.0
  9
$USERR2
 40
0.0
  9
$USERR3
 40
0.0
  9
$USERR4
 40
0.0
  9
$USERR5
 40
0.0
  9
$WORLDVIEW
 70
     1
  9
$SHADEDGE
 70
     3
  9
$SHADEDIF
 70
    70
  9
$TILEMODE
 70
     1
  9
$MAXACTVP
 70
    64
  9
$PINSBASE
 10
0.0
 20
0.0
 30
0.0
  9
$PLIMCHECK
 70
     0
  9
$PEXTMIN
 10
1.000000000000000E+20
 20
1.000000000000000E+20
 30
1.000000000000000E+20
  9
$PEXTMAX
 10
-1.000000000000000E+20
 20
-1.000000000000000E+20
 30
-1.000000000000000E+20
  9
$PLIMMIN
 10
0.0
 20
0.0
  9
$PLIMMAX
 10
420.0
 20
297.0
  9
$UNITMODE
 70
     0
  9
$VISRETAIN
 70
     1
  9
$PLINEGEN
 70
     0
  9
$PSLTSCALE
 70
     1
  9
$TREEDEPTH
 70
  3020
  9
$CMLSTYLE
  2
Standard
  9
$CMLJUST
 70
     0
  9
$CMLSCALE
 40
20.0
  9
$PROXYGRAPHICS
 70
     1
  9
$MEASUREMENT
 70
     1
  9
$CELWEIGHT
370
    -1
  9
$ENDCAPS
280
     0
  9
$JOINSTYLE
280
     0
  9
$LWDISPLAY
290
     0
  9
$INSUNITS
 70
     4
  9
$HYPERLINKBASE
  1

  9
$STYLESHEET
  1

  9
$XEDIT
290
     1
  9
$CEPSNTYPE
380
     0
  9
$PSTYLEMODE
290
     1
  9
$FINGERPRINTGUID
  2
{2c6ca289-2914-416b-a880-1bf1bb51a062}
  9
$VERSIONGUID
  2
{FAEB1C32-E019-11D5-929B-00C0DF256EC4}
  9
$EXTNAMES
290
     1
  9
$PSVPSCALE
 40
0.0
  9
$OLESTARTUP
290
     0
  9
$SORTENTS
280
   127
  9
$INDEXCTL
280
     0
  9
$HIDETEXT
280
     1
  9
$XCLIPFRAME
280
     2
  9
$HALOGAP
280
     0
  9
$OBSCOLOR
 70
   257
  9
$OBSLTYPE
280
     0
  9
$INTERSECTIONDISPLAY
280
     0
  9
$INTERSECTIONCOLOR
 70
   257
  9
$DIMASSOC
280
     2
  9
$PROJECTNAME
  1

  9
$CAMERADISPLAY
290
     0
  9
$LENSLENGTH
 40
50.0
  9
$CAMERAHEIGHT
 40
0.0
  9
$STEPSPERSEC
 40
2.0
  9
$STEPSIZE
 40
6.0
  9
$3DDWFPREC
 40
2.0
  9
$PSOLWIDTH
 40
5.0
  9
$PSOLHEIGHT
 40
80.0
  9
$LOFTANG1
 40
1.570796326794897
  9
$LOFTANG2
 40
1.570796326794897
  9
$LOFTMAG1
 40
0.0
  9
$LOFTMAG2
 40
0.0
  9
$LOFTPARAM
 70
     7
  9
$LOFTNORMALS
280
     1
  9
$LATITUDE
 40
37.795
  9
$LONGITUDE
 40
-122.394
  9
$NORTHDIRECTION
 40
0.0
  9
$TIMEZONE
 70
 -8000
  9
$LIGHTGLYPHDISPLAY
280
     1
  9
$TILEMODELIGHTSYNCH
280
     1
  9
$CMATERIAL
347
44
  9
$SOLIDHIST
280
     0
  9
$SHOWHIST
280
     1
  9
$DWFFRAME
280
     2
  9
$DGNFRAME
280
     2
  9
$REALWORLDSCALE
290
     1
  9
$INTERFERECOLOR
 62
   256
  9
$CSHADOW
280
     0
  9
$SHADOWPLANELOCATION
 40
0.0
  0
ENDSEC
  0
SECTION
  2
CLASSES
  0
CLASS
  1
ACDBDICTIONARYWDFLT
  2
AcDbDictionaryWithDefault
  3
ObjectDBX Classes
 90
        0
 91
        3
280
     0
281
     0
  0
CLASS
  1
VISUALSTYLE
  2
AcDbVisualStyle
  3
ObjectDBX Classes
 90
     4095
 91
        3
280
     0
281
     0
  0
CLASS
  1
MATERIAL
  2
AcDbMaterial
  3
ObjectDBX Classes
 90
     1153
 91
        3
280
     0
281
     0
  0
CLASS
  1
SCALE
  2
AcDbScale
  3
ObjectDBX Classes
 90
     1153
 91
        3
280
     0
281
     0
  0
CLASS
  1
TABLESTYLE
  2
AcDbTableStyle
  3
ObjectDBX Classes
 90
     4095
 91
        3
280
     0
281
     0
  0
CLASS
  1
MLEADERSTYLE
  2
AcDbMLeaderStyle
  3
ACDB_MLEADERSTYLE_CLASS
 90
     4095
 91
        3
280
     0
281
     0
  0
CLASS
  1
SUN
  2
AcDbSun
  3
SCENEOE
 90
     1153
 91
        3
280
     0
281
     0
  0
CLASS
  1
DICTIONARYVAR
  2
AcDbDictionaryVar
  3
ObjectDBX Classes
 90
        0
 91
        3
280
     0
281
     0
  0
CLASS
  1
CELLSTYLEMAP
  2
AcDbCellStyleMap
  3
ObjectDBX Classes
 90
     1152
 91
        3
280
     0
281
     0
  0
ENDSEC
  0
SECTION
  2
TABLES
  0
TABLE
  2
VPORT
  5
8
330
0
100
AcDbSymbolTable
 70
     1
  0
VPORT
  5
29
330
8
100
AcDbSymbolTableRecord
100
AcDbViewportTableRecord
  2
*Active
 70
     0
 10
0.0
 20
0.0
 11
1.0
 21
1.0
 12
151.4998911674896
 22
108.0008027704874
 13
0.0
 23
0.0
 14
10.0
 24
10.0
 15
10.0
 25
10.0
 16
0.0
 26
0.0
 36
1.0
 17
0.0
 27
0.0
 37
0.0
 40
237.6017660950723
 41
1.402766343222857
 42
50.0
 43
0.0
 44
0.0
 50
0.0
 51
0.0
 71
     0
 72
 10000
 73
     1
 74
     3
 75
     0
 76
     0
 77
     0
 78
     0
281
     0
 65
     1
110
0.0
120
0.0
130
0.0
111
1.0
121
0.0
131
0.0
112
0.0
122
1.0
132
0.0
 79
     0
146
0.0
348
2F
 60
     3
 61
     5
292
     1
282
     1
141
0.0
142
0.0
 63
   250
361
5D
  0
ENDTAB
  0
TABLE
  2
LTYPE
  5
5
330
0
100
AcDbSymbolTable
 70
     2
  0
LTYPE
  5
14
330
5
100
AcDbSymbolTableRecord
100
AcDbLinetypeTableRecord
  2
ByBlock
 70
     0
  3

 72
    65
 73
     0
 40
0.0
  0
LTYPE
  5
15
330
5
100
AcDbSymbolTableRecord
100
AcDbLinetypeTableRecord
  2
ByLayer
 70
     0
  3

 72
    65
 73
     0
 40
0.0
  0
LTYPE
  5
16
330
5
100
AcDbSymbolTableRecord
100
AcDbLinetypeTableRecord
  2
Continuous
 70
     0
  3
Solid line
 72
    65
 73
     0
 40
0.0
  0
LTYPE
  5
5F
330
5
100
AcDbSymbolTableRecord
100
AcDbLinetypeTableRecord
  2
UserDefined01
 70
     0
  3
--------------------------------
 72
    65
 73
     1
 40
0.3527777724795871
 49
0.3527777724795871
 74
     0
  0
ENDTAB
  0
TABLE
  2
LAYER
  5
2
330
0
100
AcDbSymbolTable
 70
     3
  0
LAYER
  5
10
330
2
100
AcDbSymbolTableRecord
100
AcDbLayerTableRecord
  2
0
 70
     0
 62
     7
  6
Continuous
370
    -3
390
F
347
46
348
0
  0
LAYER
  5
60
330
2
100
AcDbSymbolTableRecord
100
AcDbLayerTableRecord
  2
外枠
 70
     0
 62
     7
  6
Continuous
370
    -3
390
F
347
46
348
0
  0
LAYER
  5
61
330
2
100
AcDbSymbolTableRecord
100
AcDbLayerTableRecord
  2
ISS138金台
 70
     0
 62
     7
  6
Continuous
370
    -3
390
F
347
46
348
0
  0
ENDTAB
  0
TABLE
  2
STYLE
  5
3
330
0
100
AcDbSymbolTable
 70
     2
  0
STYLE
  5
11
330
3
100
AcDbSymbolTableRecord
100
AcDbTextStyleTableRecord
  2
Standard
 70
     0
 40
0.0
 41
1.0
 50
0.0
 71
     0
 42
2.5
  3

  4

  0
STYLE
  5
5E
330
3
100
AcDbSymbolTableRecord
100
AcDbTextStyleTableRecord
  2
MS Gothic
 70
     0
 40
1.0
 41
1.0
 50
0.0
 71
     0
 42
2.5
  3
msgothic.ttc
  4

1001
ACAD
1000
MS Gothic
1071
    32817
  0
ENDTAB
  0
TABLE
  2
VIEW
  5
6
330
0
100
AcDbSymbolTable
 70
     0
  0
ENDTAB
  0
TABLE
  2
UCS
  5
7
330
0
100
AcDbSymbolTable
 70
     0
  0
ENDTAB
  0
TABLE
  2
APPID
  5
9
330
0
100
AcDbSymbolTable
 70
     1
  0
APPID
  5
12
330
9
100
AcDbSymbolTableRecord
100
AcDbRegAppTableRecord
  2
ACAD
 70
     0
  0
ENDTAB
  0
TABLE
  2
DIMSTYLE
  5
A
330
0
100
AcDbSymbolTable
 70
     1
100
AcDbDimStyleTable
  0
DIMSTYLE
105
27
330
A
100
AcDbSymbolTableRecord
100
AcDbDimStyleTableRecord
  2
ISO-25
 70
     0
 41
2.5
 42
0.625
 43
3.75
 44
1.25
 73
     0
 74
     0
 77
     1
 78
     8
140
2.5
141
2.5
143
0.03937007874016
147
0.625
171
     3
172
     1
178
     0
271
     2
272
     2
274
     3
278
    44
283
     0
284
     8
340
11
  0
ENDTAB
  0
TABLE
  2
BLOCK_RECORD
  5
1
330
0
100
AcDbSymbolTable
 70
     1
  0
BLOCK_RECORD
  5
1F
330
1
100
AcDbSymbolTableRecord
100
AcDbBlockTableRecord
  2
*Model_Space
340
22
 70
     0
280
     1
281
     0
  0
BLOCK_RECORD
  5
1B
330
1
100
AcDbSymbolTableRecord
100
AcDbBlockTableRecord
  2
*Paper_Space
340
1E
 70
     0
280
     1
281
     0
  0
BLOCK_RECORD
  5
23
330
1
100
AcDbSymbolTableRecord
100
AcDbBlockTableRecord
  2
*Paper_Space0
340
26
 70
     0
280
     1
281
     0
  0
ENDTAB
  0
ENDSEC
  0
SECTION
  2
BLOCKS
  0
BLOCK
  5
20
330
1F
100
AcDbEntity
  8
0
100
AcDbBlockBegin
  2
*Model_Space
 70
     0
 10
0.0
 20
0.0
 30
0.0
  3
*Model_Space
  1

  0
ENDBLK
  5
21
330
1F
100
AcDbEntity
  8
0
100
AcDbBlockEnd
  0
BLOCK
  5
1C
330
1B
100
AcDbEntity
 67
     1
  8
0
100
AcDbBlockBegin
  2
*Paper_Space
 70
     0
 10
0.0
 20
0.0
 30
0.0
  3
*Paper_Space
  1

  0
ENDBLK
  5
1D
330
1B
100
AcDbEntity
 67
     1
  8
0
100
AcDbBlockEnd
  0
BLOCK
  5
24
330
23
100
AcDbEntity
  8
0
100
AcDbBlockBegin
  2
*Paper_Space0
 70
     0
 10
0.0
 20
0.0
 30
0.0
  3
*Paper_Space0
  1

  0
ENDBLK
  5
25
330
23
100
AcDbEntity
  8
0
100
AcDbBlockEnd
  0
ENDSEC
  0
SECTION
  2
ENTITIES
  0
LWPOLYLINE
  5
62
330
1F
100
AcDbEntity
  8
外枠
  6
Continuous
 62
   250
420
  2367521
370
   100
100
AcDbPolyline
 90
        5
 70
     0
 43
0.0
 10
281.9999662644599
 20
13.29407825637392
 10
20.99981607051935
 20
13.29407825637392
 10
20.99981607051935
 20
193.0018900389566
 10
281.9999662644599
 20
193.0018900389566
 10
281.9999662644599
 20
13.29407825637392
  0
LINE
  5
63
330
1F
100
AcDbEntity
  8
外枠
  6
Continuous
 62
   250
420
  2367521
370
    25
100
AcDbLine
 10
223.3097080177524
 20
174.0786160074276
 30
0.0
 11
281.9999232007669
 21
174.0786160074276
 31
0.0
  0
LINE
  5
64
330
1F
100
AcDbEntity
  8
外枠
  6
Continuous
 62
   250
420
  2367521
370
    25
100
AcDbLine
 10
223.3097080177524
 20
50.37109023844297
 30
0.0
 11
281.9999232007669
 21
50.37109023844297
 31
0.0
  0
LINE
  5
65
330
1F
100
AcDbEntity
  8
外枠
  6
Continuous
 62
   250
420
  2367521
370
    25
100
AcDbLine
 10
223.3097080177524
 20
36.25997933925949
 30
0.0
 11
281.9999232007669
 21
36.25997933925949
 31
0.0
  0
LINE
  5
66
330
1F
100
AcDbEntity
  8
外枠
  6
Continuous
 62
   250
420
  2367521
370
    50
100
AcDbLine
 10
223.0158413772006
 20
193.3637327187979
 30
0.0
 11
223.0158413772006
 21
13.29396655992039
 31
0.0
  0
TEXT
  5
67
330
1F
100
AcDbEntity
  8
外枠
  6
Continuous
 62
   250
420
  2367521
100
AcDbText
 10
224.7190965599536
 20
186.6888051931772
 30
0.0
 40
2.688166626294454
  1
品名：
 41
0.974166170756022
  7
MS Gothic
100
AcDbText
  0
TEXT
  5
68
330
1F
100
AcDbEntity
  8
外枠
  6
Continuous
 62
   250
420
  2367521
100
AcDbText
 10
224.7190965599536
 20
168.1080059455944
 30
0.0
 40
2.688166626294454
  1
仕様：
 41
0.9978878657023111
  7
MS Gothic
100
AcDbText
  0
TEXT
  5
69
330
1F
100
AcDbEntity
  8
外枠
  6
Continuous
 62
   250
420
  2367521
100
AcDbText
 10
224.7190965599536
 20
44.16660664327048
 30
0.0
 40
2.688166626294454
  1
縮尺：
 41
0.9939999262491861
  7
MS Gothic
100
AcDbText
  0
TEXT
  5
6A
330
1F
100
AcDbEntity
  8
外枠
  6
Continuous
 62
   250
420
  2367521
100
AcDbText
 10
250.2379519709696
 20
40.59738467878129
 30
0.0
 40
2.150533301035563
  1
1/1
 41
1.000003814697266
  7
MS Gothic
100
AcDbText
  0
TEXT
  5
6B
330
1F
100
AcDbEntity
  8
外枠
  6
Continuous
 62
   250
420
  2367521
100
AcDbText
 10
232.7757967427735
 20
181.9845273775436
 30
0.0
 40
2.688166626294454
  1
フレックスタイルロックF
 41
1.026856994628906
  7
MS Gothic
100
AcDbText
  0
TEXT
  5
6C
330
1F
100
AcDbEntity
  8
外枠
  6
Continuous
 62
   250
420
  2367521
100
AcDbText
 10
226.1633020978884
 20
24.25683874973963
 30
0.0
 40
2.553758294979732
  1
ヤスダインテリアサプライ株式会社
 41
1.0194908945184
  7
MS Gothic
100
AcDbText
  0
TEXT
  5
6D
330
1F
100
AcDbEntity
  8
外枠
  6
Continuous
 62
   250
420
  2367521
100
AcDbText
 10
227.7635273953072
 20
161.7763665048245
 30
0.0
 40
2.150533301035563
  1
材質
 41
1.028502464294433
  7
MS Gothic
100
AcDbText
  0
TEXT
  5
6E
330
1F
100
AcDbEntity
  8
外枠
  6
Continuous
 62
   250
420
  2367521
100
AcDbText
 10
232.7757967427735
 20
156.199681315683
 30
0.0
 40
2.016124969720841
  1
金台：
 41
1.494500562879774
  7
MS Gothic
100
AcDbText
  0
TEXT
  5
6F
330
1F
100
AcDbEntity
  8
外枠
  6
Continuous
 62
   250
420
  2367521
100
AcDbText
 10
243.6078442756763
 20
156.199681315683
 30
0.0
 40
2.016124969720841
  1
アルミ押出形材（A6063S-T5）
 41
1.033106825086805
  7
MS Gothic
100
AcDbText
  0
TEXT
  5
70
330
1F
100
AcDbEntity
  8
外枠
  6
Continuous
 62
   250
420
  2367521
100
AcDbText
 10
243.4437931374608
 20
151.9663480459279
 30
0.0
 40
2.016124969720841
  1
生地シルバー
 41
1.040896352132161
  7
MS Gothic
100
AcDbText
  0
TEXT
  5
71
330
1F
100
AcDbEntity
  8
外枠
  6
Continuous
 62
   250
420
  2367521
100
AcDbText
 10
232.7757967427735
 20
147.7330147761729
 30
0.0
 40
2.016124969720841
  1
タイヤ：
 41
1.121272277832031
  7
MS Gothic
100
AcDbText
  0
TEXT
  5
72
330
1F
100
AcDbEntity
  8
外枠
  6
Continuous
 62
   250
420
  2367521
100
AcDbText
 10
243.8829997416501
 20
147.7330147761729
 30
0.0
 40
2.016124969720841
  1
軟質塩ビ
 41
1.052407201131185
  7
MS Gothic
100
AcDbText
  0
TEXT
  5
73
330
1F
100
AcDbEntity
  8
外枠
  6
Continuous
 62
   250
420
  2367521
100
AcDbText
 10
227.7635273953072
 20
135.3178613140838
 30
0.0
 40
2.150533301035563
  1
インサートカラー
 41
1.010754346847534
  7
MS Gothic
100
AcDbText
  0
TEXT
  5
74
330
1F
100
AcDbEntity
  8
外枠
  6
Continuous
 62
   250
420
  2367521
100
AcDbText
 10
232.657974478918
 20
130.0717330318701
 30
0.0
 40
2.016124969720841
  1
IS-19  ライトベージュ
 41
0.9467488606770831
  7
MS Gothic
100
AcDbText
  0
TEXT
  5
75
330
1F
100
AcDbEntity
  8
外枠
  6
Continuous
 62
   250
420
  2367521
100
AcDbText
 10
232.657974478918
 20
124.7800664446763
 30
0.0
 40
2.016124969720841
  1
IS-14  ダークグレー
 41
0.9366206654331138
  7
MS Gothic
100
AcDbText
  0
TEXT
  5
76
330
1F
100
AcDbEntity
  8
外枠
  6
Continuous
 62
   250
420
  2367521
100
AcDbText
 10
232.657974478918
 20
119.4883998574825
 30
0.0
 40
2.016124969720841
  1
IS-7　ライトグリーン
 41
0.9930954996744787
  7
MS Gothic
100
AcDbText
  0
TEXT
  5
77
330
1F
100
AcDbEntity
  8
外枠
  6
Continuous
 62
   250
420
  2367521
100
AcDbText
 10
232.657974478918
 20
114.1967332702887
 30
0.0
 40
2.016124969720841
  1
IS-9     マスタードイエロー
 41
0.8884570463204088
  7
MS Gothic
100
AcDbText
  0
TEXT
  5
78
330
1F
100
AcDbEntity
  8
ISS138金台
  6
Continuous
 62
   250
420
  2367521
100
AcDbText
 10
114.4912441436867
 20
119.7573987656604
 30
0.0
 40
2.150533301035563
  1
30
 41
1.014999389648437
  7
MS Gothic
100
AcDbText
  0
TEXT
  5
79
330
1F
100
AcDbEntity
  8
ISS138金台
  6
Continuous
 62
   250
420
  2367521
100
AcDbText
 10
92.89954663877856
 20
107.5614777237483
 30
0.0
 40
2.150533301035563
  1
8
 50
90.00000250447816
 41
0.7760009765625
  7
MS Gothic
100
AcDbText
  0
LINE
  5
7A
330
1F
100
AcDbEntity
  8
ISS138金台
  6
Continuous
 62
   250
420
  2367521
370
    13
100
AcDbLine
 10
94.94873573967601
 20
112.3655879629102
 30
0.0
 11
99.95394264150187
 21
112.3655879629102
 31
0.0
  0
LINE
  5
7B
330
1F
100
AcDbEntity
  8
ISS138金台
  6
Continuous
 62
   250
420
  2367521
370
    13
100
AcDbLine
 10
94.94873573967601
 20
104.3839800946363
 30
0.0
 11
99.95394264150187
 21
104.3839800946363
 31
0.0
  0
LINE
  5
7C
330
1F
100
AcDbEntity
  8
ISS138金台
  6
Continuous
 62
   250
420
  2367521
370
    13
100
AcDbLine
 10
95.9629610696316
 20
112.3655879629102
 30
0.0
 11
95.9629610696316
 21
104.3839908605595
 31
0.0
  0
LINE
  5
7D
330
1F
100
AcDbEntity
  8
ISS138金台
  6
Continuous
 62
   250
420
  2367521
370
    13
100
AcDbLine
 10
100.9238877292026
 20
113.3798132928657
 30
0.0
 11
100.9238877292026
 21
118.3850201946916
 31
0.0
  0
LINE
  5
7E
330
1F
100
AcDbEntity
  8
ISS138金台
  6
Continuous
 62
   250
420
  2367521
370
    13
100
AcDbLine
 10
100.9238877292026
 20
117.3926712207443
 30
0.0
 11
130.9540956115274
 21
117.3926712207443
 31
0.0
  0
LINE
  5
7F
330
1F
100
AcDbEntity
  8
ISS138金台
  6
Continuous
 62
   250
420
  2367521
370
    13
100
AcDbLine
 10
130.9541063774506
 20
118.3848479399199
 30
0.0
 11
130.9541063774506
 21
113.379641038094
 31
0.0
  0
HATCH
  5
80
330
1F
100
AcDbEntity
  8
ISS138金台
  6
Continuous
 62
   250
420
  2367521
370
    13
100
AcDbHatch
 10
0.0
 20
0.0
 30
0.0
210
0.0
220
0.0
230
1.0
  2
SOLID
 70
     1
 71
     0
 91
        1
 92
        3
 72
     0
 73
     1
 93
       67
 10
100.9679957166857
 20
117.1427080151342
 10
100.993532486593
 20
117.1439999259221
 10
101.0183479396437
 20
117.1477787649767
 10
101.0422913529126
 20
117.1539261071424
 10
101.0652658330906
 20
117.1623342931869
 10
101.0871314231756
 20
117.172852600185
 10
101.1077481661656
 20
117.1853733689043
 10
101.1270191687517
 20
117.1997458764195
 10
101.1447829420851
 20
117.2158624634984
 10
101.1609318269337
 20
117.2336047049854
 10
101.175347398142
 20
117.2528326438785
 10
101.1878896987077
 20
117.2734170890989
 10
101.1984403034755
 20
117.2952503814142
 10
101.2068592554432
 20
117.3182033297457
 10
101.2130281294554
 20
117.3421359770913
 10
101.2168285003564
 20
117.3669406642188
 10
101.2181204111443
 20
117.3924774341261
 10
101.2181204111443
 20
117.3924774341261
 10
101.2168392662796
 20
117.4180787995728
 10
101.2130281294554
 20
117.4429157844699
 10
101.20684848952
 20
117.466913027355
 10
101.1984403034755
 20
117.4898982734562
 10
101.1878896987077
 20
117.5117638635412
 10
101.175347398142
 20
117.5323913724545
 10
101.1609318269337
 20
117.551640843194
 10
101.1447829420851
 20
117.5693938506043
 10
101.1270084028284
 20
117.5855319695297
 10
101.1077481661656
 20
117.5999152429682
 10
101.0871314231756
 20
117.6124360116874
 10
101.0652658330906
 20
117.6229543186855
 10
101.0423021188358
 20
117.63136250473
 10
101.0183479396437
 20
117.637520612819
 10
100.993532486593
 20
117.6412994518735
 10
100.9679957166857
 20
117.6425913626614
 10
100.9679957166857
 20
117.6425913626614
 10
100.9424589467785
 20
117.6412994518735
 10
100.9176434937278
 20
117.6375098468957
 10
100.8937000804589
 20
117.63136250473
 10
100.8707256002809
 20
117.6229543186855
 10
100.8488600101959
 20
117.6124252457642
 10
100.8282432672058
 20
117.5999152429682
 10
100.8089830305431
 20
117.5855319695297
 10
100.7912084912863
 20
117.5693938506043
 10
100.7750488405145
 20
117.551640843194
 10
100.7606440352295
 20
117.5323913724545
 10
100.7481017346638
 20
117.5117638635412
 10
100.737551129896
 20
117.4898982734562
 10
100.7291321779283
 20
117.466913027355
 10
100.7229633039161
 20
117.4429265503932
 10
100.7191629330151
 20
117.4180787995728
 10
100.7178710222272
 20
117.3924774341261
 10
100.7178710222272
 20
117.3924774341261
 10
100.7191629330151
 20
117.3669298982956
 10
100.7229633039161
 20
117.3421467430146
 10
100.7291429438515
 20
117.3182033297457
 10
100.7375618958193
 20
117.2952611473374
 10
100.7481017346638
 20
117.2734170890989
 10
100.7606440352295
 20
117.2528218779553
 10
100.7750488405145
 20
117.2335939390622
 10
100.7912084912863
 20
117.2158624634984
 10
100.8089722646198
 20
117.1997458764195
 10
100.8282325012826
 20
117.185362602981
 10
100.8488600101959
 20
117.172852600185
 10
100.8707256002809
 20
117.1623342931869
 10
100.8937000804589
 20
117.1539368730656
 10
100.9176434937278
 20
117.1477787649767
 10
100.9424589467785
 20
117.1439999259221
 97
        0
 75
     1
 76
     1
 98
        0
  0
LWPOLYLINE
  5
81
330
1F
100
AcDbEntity
  8
ISS138金台
  6
Continuous
 62
   250
420
  2367521
370
    13
100
AcDbPolyline
 90
       68
 70
     0
 43
0.0
 10
100.9679957166857
 20
117.1427080151342
 10
100.993532486593
 20
117.1439999259221
 10
101.0183479396437
 20
117.1477787649767
 10
101.0422913529126
 20
117.1539261071424
 10
101.0652658330906
 20
117.1623342931869
 10
101.0871314231756
 20
117.172852600185
 10
101.1077481661656
 20
117.1853733689043
 10
101.1270191687517
 20
117.1997458764195
 10
101.1447829420851
 20
117.2158624634984
 10
101.1609318269337
 20
117.2336047049854
 10
101.175347398142
 20
117.2528326438785
 10
101.1878896987077
 20
117.2734170890989
 10
101.1984403034755
 20
117.2952503814142
 10
101.2068592554432
 20
117.3182033297457
 10
101.2130281294554
 20
117.3421359770913
 10
101.2168285003564
 20
117.3669406642188
 10
101.2181204111443
 20
117.3924774341261
 10
101.2181204111443
 20
117.3924774341261
 10
101.2168392662796
 20
117.4180787995728
 10
101.2130281294554
 20
117.4429157844699
 10
101.20684848952
 20
117.466913027355
 10
101.1984403034755
 20
117.4898982734562
 10
101.1878896987077
 20
117.5117638635412
 10
101.175347398142
 20
117.5323913724545
 10
101.1609318269337
 20
117.551640843194
 10
101.1447829420851
 20
117.5693938506043
 10
101.1270084028284
 20
117.5855319695297
 10
101.1077481661656
 20
117.5999152429682
 10
101.0871314231756
 20
117.6124360116874
 10
101.0652658330906
 20
117.6229543186855
 10
101.0423021188358
 20
117.63136250473
 10
101.0183479396437
 20
117.637520612819
 10
100.993532486593
 20
117.6412994518735
 10
100.9679957166857
 20
117.6425913626614
 10
100.9679957166857
 20
117.6425913626614
 10
100.9424589467785
 20
117.6412994518735
 10
100.9176434937278
 20
117.6375098468957
 10
100.8937000804589
 20
117.63136250473
 10
100.8707256002809
 20
117.6229543186855
 10
100.8488600101959
 20
117.6124252457642
 10
100.8282432672058
 20
117.5999152429682
 10
100.8089830305431
 20
117.5855319695297
 10
100.7912084912863
 20
117.5693938506043
 10
100.7750488405145
 20
117.551640843194
 10
100.7606440352295
 20
117.5323913724545
 10
100.7481017346638
 20
117.5117638635412
 10
100.737551129896
 20
117.4898982734562
 10
100.7291321779283
 20
117.466913027355
 10
100.7229633039161
 20
117.4429265503932
 10
100.7191629330151
 20
117.4180787995728
 10
100.7178710222272
 20
117.3924774341261
 10
100.7178710222272
 20
117.3924774341261
 10
100.7191629330151
 20
117.3669298982956
 10
100.7229633039161
 20
117.3421467430146
 10
100.7291429438515
 20
117.3182033297457
 10
100.7375618958193
 20
117.2952611473374
 10
100.7481017346638
 20
117.2734170890989
 10
100.7606440352295
 20
117.2528218779553
 10
100.7750488405145
 20
117.2335939390622
 10
100.7912084912863
 20
117.2158624634984
 10
100.8089722646198
 20
117.1997458764195
 10
100.8282325012826
 20
117.185362602981
 10
100.8488600101959
 20
117.172852600185
 10
100.8707256002809
 20
117.1623342931869
 10
100.8937000804589
 20
117.1539368730656
 10
100.9176434937278
 20
117.1477787649767
 10
100.9424589467785
 20
117.1439999259221
 10
100.9679957166857
 20
117.1427080151342
  0
HATCH
  5
82
330
1F
100
AcDbEntity
  8
ISS138金台
  6
Continuous
 62
   250
420
  2367521
370
    13
100
AcDbHatch
 10
0.0
 20
0.0
 30
0.0
210
0.0
220
0.0
230
1.0
  2
SOLID
 70
     1
 71
     0
 91
        1
 92
        3
 72
     0
 73
     1
 93
       67
 10
95.98499891448833
 20
112.0713660468916
 10
96.01053568439562
 20
112.0726579576795
 10
96.03535113744633
 20
112.0764583285806
 10
96.0592945507152
 20
112.082637968516
 10
96.08226903089316
 20
112.0910569204837
 10
96.10412385505495
 20
112.1015967593282
 10
96.12475136396824
 20
112.114139059894
 10
96.14401160063102
 20
112.128543865179
 10
96.16178613988774
 20
112.1447035159508
 10
96.17794579065958
 20
112.1624672892843
 10
96.19235059594453
 20
112.1817382918703
 10
96.2048928965103
 20
112.2023550348604
 10
96.21543273535482
 20
112.2242098590222
 10
96.2238624532458
 20
112.2471843392001
 10
96.23003132725798
 20
112.2711385183922
 10
96.23383169815901
 20
112.2959539714429
 10
96.2351236089469
 20
112.3214907413502
 10
96.2351236089469
 20
112.3214907413502
 10
96.23383169815901
 20
112.3470275112575
 10
96.23003132725798
 20
112.371832198385
 10
96.2238624532458
 20
112.3957971435003
 10
96.21544350127806
 20
112.4187716236783
 10
96.20488213058707
 20
112.44062644784
 10
96.19235059594453
 20
112.4612431908301
 10
96.17794579065958
 20
112.4805034274929
 10
96.16178613988774
 20
112.4982672008264
 10
96.14401160063102
 20
112.5144268515982
 10
96.12475136396824
 20
112.5288316568832
 10
96.10413462097819
 20
112.541373957449
 10
96.08226903089316
 20
112.5519245622167
 10
96.05930531663843
 20
112.5603435141845
 10
96.03535113744633
 20
112.5665123881966
 10
96.01053568439562
 20
112.5703127590977
 10
95.98499891448833
 20
112.5716046698856
 10
95.98499891448833
 20
112.5716046698856
 10
95.95946214458107
 20
112.5703127590977
 10
95.93464669153036
 20
112.5665123881966
 10
95.91069251233824
 20
112.5603542801077
 10
95.88772879808351
 20
112.5519245622167
 10
95.8658632079985
 20
112.541373957449
 10
95.84524646500844
 20
112.5288424228064
 10
95.82597546242242
 20
112.5144268515982
 10
95.80821168908895
 20
112.4982672008264
 10
95.79206280424033
 20
112.4805034274929
 10
95.77764723303213
 20
112.4612431908301
 10
95.76510493246639
 20
112.44062644784
 10
95.75455432769863
 20
112.418760857755
 10
95.74613537573087
 20
112.3957863775771
 10
95.7399665017187
 20
112.3718429643082
 10
95.73616613081767
 20
112.3470275112575
 10
95.73487422002978
 20
112.3214907413502
 10
95.73487422002978
 20
112.3214907413502
 10
95.73616613081767
 20
112.2959432055197
 10
95.7399665017187
 20
112.2711385183922
 10
95.74613537573087
 20
112.2471843392001
 10
95.75456509362185
 20
112.2242206249454
 10
95.76510493246639
 20
112.2023550348604
 10
95.7776364671089
 20
112.1817382918703
 10
95.79206280424033
 20
112.1624672892843
 10
95.80821168908895
 20
112.1447035159508
 10
95.82598622834566
 20
112.128543865179
 10
95.84524646500844
 20
112.1141282939708
 10
95.8658632079985
 20
112.1015967593282
 10
95.88772879808351
 20
112.0910461545605
 10
95.91069251233824
 20
112.0826272025927
 10
95.93464669153036
 20
112.0764583285806
 10
95.95946214458107
 20
112.0726579576795
 97
        0
 75
     1
 76
     1
 98
        0
  0
LWPOLYLINE
  5
83
330
1F
100
AcDbEntity
  8
ISS138金台
  6
Continuous
 62
   250
420
  2367521
370
    13
100
AcDbPolyline
 90
       68
 70
     0
 43
0.0
 10
95.98499891448833
 20
112.0713660468916
 10
96.01053568439562
 20
112.0726579576795
 10
96.03535113744633
 20
112.0764583285806
 10
96.0592945507152
 20
112.082637968516
 10
96.08226903089316
 20
112.0910569204837
 10
96.10412385505495
 20
112.1015967593282
 10
96.12475136396824
 20
112.114139059894
 10
96.14401160063102
 20
112.128543865179
 10
96.16178613988774
 20
112.1447035159508
 10
96.17794579065958
 20
112.1624672892843
 10
96.19235059594453
 20
112.1817382918703
 10
96.2048928965103
 20
112.2023550348604
 10
96.21543273535482
 20
112.2242098590222
 10
96.2238624532458
 20
112.2471843392001
 10
96.23003132725798
 20
112.2711385183922
 10
96.23383169815901
 20
112.2959539714429
 10
96.2351236089469
 20
112.3214907413502
 10
96.2351236089469
 20
112.3214907413502
 10
96.23383169815901
 20
112.3470275112575
 10
96.23003132725798
 20
112.371832198385
 10
96.2238624532458
 20
112.3957971435003
 10
96.21544350127806
 20
112.4187716236783
 10
96.20488213058707
 20
112.44062644784
 10
96.19235059594453
 20
112.4612431908301
 10
96.17794579065958
 20
112.4805034274929
 10
96.16178613988774
 20
112.4982672008264
 10
96.14401160063102
 20
112.5144268515982
 10
96.12475136396824
 20
112.5288316568832
 10
96.10413462097819
 20
112.541373957449
 10
96.08226903089316
 20
112.5519245622167
 10
96.05930531663843
 20
112.5603435141845
 10
96.03535113744633
 20
112.5665123881966
 10
96.01053568439562
 20
112.5703127590977
 10
95.98499891448833
 20
112.5716046698856
 10
95.98499891448833
 20
112.5716046698856
 10
95.95946214458107
 20
112.5703127590977
 10
95.93464669153036
 20
112.5665123881966
 10
95.91069251233824
 20
112.5603542801077
 10
95.88772879808351
 20
112.5519245622167
 10
95.8658632079985
 20
112.541373957449
 10
95.84524646500844
 20
112.5288424228064
 10
95.82597546242242
 20
112.5144268515982
 10
95.80821168908895
 20
112.4982672008264
 10
95.79206280424033
 20
112.4805034274929
 10
95.77764723303213
 20
112.4612431908301
 10
95.76510493246639
 20
112.44062644784
 10
95.75455432769863
 20
112.418760857755
 10
95.74613537573087
 20
112.3957863775771
 10
95.7399665017187
 20
112.3718429643082
 10
95.73616613081767
 20
112.3470275112575
 10
95.73487422002978
 20
112.3214907413502
 10
95.73487422002978
 20
112.3214907413502
 10
95.73616613081767
 20
112.2959432055197
 10
95.7399665017187
 20
112.2711385183922
 10
95.74613537573087
 20
112.2471843392001
 10
95.75456509362185
 20
112.2242206249454
 10
95.76510493246639
 20
112.2023550348604
 10
95.7776364671089
 20
112.1817382918703
 10
95.79206280424033
 20
112.1624672892843
 10
95.80821168908895
 20
112.1447035159508
 10
95.82598622834566
 20
112.128543865179
 10
95.84524646500844
 20
112.1141282939708
 10
95.8658632079985
 20
112.1015967593282
 10
95.88772879808351
 20
112.0910461545605
 10
95.91069251233824
 20
112.0826272025927
 10
95.93464669153036
 20
112.0764583285806
 10
95.95946214458107
 20
112.0726579576795
 10
95.98499891448833
 20
112.0713660468916
  0
HATCH
  5
84
330
1F
100
AcDbEntity
  8
ISS138金台
  6
Continuous
 62
   250
420
  2367521
370
    13
100
AcDbHatch
 10
0.0
 20
0.0
 30
0.0
210
0.0
220
0.0
230
1.0
  2
SOLID
 70
     1
 71
     0
 91
        1
 92
        3
 72
     0
 73
     1
 93
       67
 10
95.98499891448833
 20
104.1338661661009
 10
96.01053568439562
 20
104.1351580768888
 10
96.03535113744633
 20
104.1389584477899
 10
96.0592945507152
 20
104.1451380877253
 10
96.08226903089316
 20
104.153557039693
 10
96.10412385505495
 20
104.1640968785375
 10
96.12475136396824
 20
104.1766391791033
 10
96.14401160063102
 20
104.1910439843883
 10
96.16178613988774
 20
104.2072036351601
 10
96.17794579065958
 20
104.2249674084936
 10
96.19235059594453
 20
104.2442384110796
 10
96.2048928965103
 20
104.2648551540697
 10
96.21543273535482
 20
104.2867099782315
 10
96.2238624532458
 20
104.3096844584094
 10
96.23003132725798
 20
104.3336386376015
 10
96.23383169815901
 20
104.3584540906522
 10
96.2351236089469
 20
104.3839908605595
 10
96.2351236089469
 20
104.3839908605595
 10
96.23383169815901
 20
104.4095276304668
 10
96.23003132725798
 20
104.4343323175942
 10
96.2238624532458
 20
104.4582972627096
 10
96.21544350127806
 20
104.4812717428876
 10
96.20488213058707
 20
104.5031265670493
 10
96.19235059594453
 20
104.5237433100394
 10
96.17794579065958
 20
104.5430035467022
 10
96.16178613988774
 20
104.5607673200357
 10
96.14401160063102
 20
104.5769269708075
 10
96.12475136396824
 20
104.5913317760925
 10
96.10413462097819
 20
104.6038740766582
 10
96.08226903089316
 20
104.614424681426
 10
96.05930531663843
 20
104.6228436333937
 10
96.03535113744633
 20
104.6290125074059
 10
96.01053568439562
 20
104.632812878307
 10
95.98499891448833
 20
104.6341047890948
 10
95.98499891448833
 20
104.6341047890948
 10
95.95946214458107
 20
104.632812878307
 10
95.93464669153036
 20
104.6290125074059
 10
95.91069251233824
 20
104.622854399317
 10
95.88772879808351
 20
104.614424681426
 10
95.8658632079985
 20
104.6038740766582
 10
95.84524646500844
 20
104.5913425420157
 10
95.82597546242242
 20
104.5769269708075
 10
95.80821168908895
 20
104.5607673200357
 10
95.79206280424033
 20
104.5430035467022
 10
95.77764723303213
 20
104.5237433100394
 10
95.76510493246639
 20
104.5031265670493
 10
95.75455432769863
 20
104.4812609769643
 10
95.74613537573087
 20
104.4582864967864
 10
95.7399665017187
 20
104.4343430835175
 10
95.73616613081767
 20
104.4095276304668
 10
95.73487422002978
 20
104.3839908605595
 10
95.73487422002978
 20
104.3839908605595
 10
95.73616613081767
 20
104.358443324729
 10
95.7399665017187
 20
104.3336386376015
 10
95.74613537573087
 20
104.3096844584094
 10
95.75456509362185
 20
104.2867207441547
 10
95.76510493246639
 20
104.2648551540697
 10
95.7776364671089
 20
104.2442384110796
 10
95.79206280424033
 20
104.2249674084936
 10
95.80821168908895
 20
104.2072036351601
 10
95.82598622834566
 20
104.1910439843883
 10
95.84524646500844
 20
104.1766284131801
 10
95.8658632079985
 20
104.1640968785375
 10
95.88772879808351
 20
104.1535462737698
 10
95.91069251233824
 20
104.145127321802
 10
95.93464669153036
 20
104.1389584477899
 10
95.95946214458107
 20
104.1351580768888
 97
        0
 75
     1
 76
     1
 98
        0
  0
LWPOLYLINE
  5
85
330
1F
100
AcDbEntity
  8
ISS138金台
  6
Continuous
 62
   250
420
  2367521
370
    13
100
AcDbPolyline
 90
       68
 70
     0
 43
0.0
 10
95.98499891448833
 20
104.1338661661009
 10
96.01053568439562
 20
104.1351580768888
 10
96.03535113744633
 20
104.1389584477899
 10
96.0592945507152
 20
104.1451380877253
 10
96.08226903089316
 20
104.153557039693
 10
96.10412385505495
 20
104.1640968785375
 10
96.12475136396824
 20
104.1766391791033
 10
96.14401160063102
 20
104.1910439843883
 10
96.16178613988774
 20
104.2072036351601
 10
96.17794579065958
 20
104.2249674084936
 10
96.19235059594453
 20
104.2442384110796
 10
96.2048928965103
 20
104.2648551540697
 10
96.21543273535482
 20
104.2867099782315
 10
96.2238624532458
 20
104.3096844584094
 10
96.23003132725798
 20
104.3336386376015
 10
96.23383169815901
 20
104.3584540906522
 10
96.2351236089469
 20
104.3839908605595
 10
96.2351236089469
 20
104.3839908605595
 10
96.23383169815901
 20
104.4095276304668
 10
96.23003132725798
 20
104.4343323175942
 10
96.2238624532458
 20
104.4582972627096
 10
96.21544350127806
 20
104.4812717428876
 10
96.20488213058707
 20
104.5031265670493
 10
96.19235059594453
 20
104.5237433100394
 10
96.17794579065958
 20
104.5430035467022
 10
96.16178613988774
 20
104.5607673200357
 10
96.14401160063102
 20
104.5769269708075
 10
96.12475136396824
 20
104.5913317760925
 10
96.10413462097819
 20
104.6038740766582
 10
96.08226903089316
 20
104.614424681426
 10
96.05930531663843
 20
104.6228436333937
 10
96.03535113744633
 20
104.6290125074059
 10
96.01053568439562
 20
104.632812878307
 10
95.98499891448833
 20
104.6341047890948
 10
95.98499891448833
 20
104.6341047890948
 10
95.95946214458107
 20
104.632812878307
 10
95.93464669153036
 20
104.6290125074059
 10
95.91069251233824
 20
104.622854399317
 10
95.88772879808351
 20
104.614424681426
 10
95.8658632079985
 20
104.6038740766582
 10
95.84524646500844
 20
104.5913425420157
 10
95.82597546242242
 20
104.5769269708075
 10
95.80821168908895
 20
104.5607673200357
 10
95.79206280424033
 20
104.5430035467022
 10
95.77764723303213
 20
104.5237433100394
 10
95.76510493246639
 20
104.5031265670493
 10
95.75455432769863
 20
104.4812609769643
 10
95.74613537573087
 20
104.4582864967864
 10
95.7399665017187
 20
104.4343430835175
 10
95.73616613081767
 20
104.4095276304668
 10
95.73487422002978
 20
104.3839908605595
 10
95.73487422002978
 20
104.3839908605595
 10
95.73616613081767
 20
104.358443324729
 10
95.7399665017187
 20
104.3336386376015
 10
95.74613537573087
 20
104.3096844584094
 10
95.75456509362185
 20
104.2867207441547
 10
95.76510493246639
 20
104.2648551540697
 10
95.7776364671089
 20
104.2442384110796
 10
95.79206280424033
 20
104.2249674084936
 10
95.80821168908895
 20
104.2072036351601
 10
95.82598622834566
 20
104.1910439843883
 10
95.84524646500844
 20
104.1766284131801
 10
95.8658632079985
 20
104.1640968785375
 10
95.88772879808351
 20
104.1535462737698
 10
95.91069251233824
 20
104.145127321802
 10
95.93464669153036
 20
104.1389584477899
 10
95.95946214458107
 20
104.1351580768888
 10
95.98499891448833
 20
104.1338661661009
  0
HATCH
  5
86
330
1F
100
AcDbEntity
  8
ISS138金台
  6
Continuous
 62
   250
420
  2367521
370
    13
100
AcDbHatch
 10
0.0
 20
0.0
 30
0.0
210
0.0
220
0.0
230
1.0
  2
SOLID
 70
     1
 71
     0
 91
        1
 92
        3
 72
     0
 73
     1
 93
       67
 10
130.9541063774506
 20
117.1427080151342
 10
130.9796969769741
 20
117.1439999259221
 10
131.0045554937177
 20
117.1477787649767
 10
131.0285312047563
 20
117.1539261071424
 10
131.0515272167807
 20
117.1623342931869
 10
131.073403572789
 20
117.172852600185
 10
131.0940095498558
 20
117.1853733689043
 10
131.1132697865186
 20
117.1997458764195
 10
131.1310227939288
 20
117.2158624634984
 10
131.1471609128542
 20
117.2336047049854
 10
131.1615549522159
 20
117.2528326438785
 10
131.1740757209352
 20
117.2734170890989
 10
131.1845940279333
 20
117.2952503814142
 10
131.1930022139778
 20
117.3182033297457
 10
131.1991495561435
 20
117.3421359770913
 10
131.2029391611213
 20
117.3669406642188
 10
131.2042310719092
 20
117.3924774341261
 10
131.2042310719092
 20
117.3924774341261
 10
131.2029499270446
 20
117.4180787995728
 10
131.1991495561435
 20
117.4429157844699
 10
131.1929914480546
 20
117.466913027355
 10
131.1845940279333
 20
117.4898982734562
 10
131.174064955012
 20
117.5117638635412
 10
131.1615441862927
 20
117.5323913724545
 10
131.1471609128542
 20
117.551640843194
 10
131.1310227939288
 20
117.5693938506043
 10
131.1132697865186
 20
117.5855319695297
 10
131.094020315779
 20
117.5999152429682
 10
131.0733928068657
 20
117.6124360116874
 10
131.0515272167807
 20
117.6229543186855
 10
131.0285419706795
 20
117.63136250473
 10
131.0045554937177
 20
117.637520612819
 10
130.9797077428973
 20
117.6412994518735
 10
130.9541063774506
 20
117.6425913626614
 10
130.9541063774506
 20
117.6425913626614
 10
130.9285696075434
 20
117.6412994518735
 10
130.9037756863391
 20
117.6375098468957
 10
130.8798322730702
 20
117.63136250473
 10
130.8568793247388
 20
117.6229543186855
 10
130.8350460324234
 20
117.6124252457642
 10
130.8144615872031
 20
117.5999152429682
 10
130.79523364831
 20
117.5855319695297
 10
130.7775021727462
 20
117.5693938506043
 10
130.761374819744
 20
117.551640843194
 10
130.7470023122288
 20
117.5323913724545
 10
130.7344815435095
 20
117.5117638635412
 10
130.7239632365115
 20
117.4898982734562
 10
130.7155658163902
 20
117.466913027355
 10
130.7094077083012
 20
117.4429265503932
 10
130.7056288692467
 20
117.4180787995728
 10
130.7043369584588
 20
117.3924774341261
 10
130.7043369584588
 20
117.3924774341261
 10
130.7056288692467
 20
117.3669298982956
 10
130.7094077083012
 20
117.3421467430146
 10
130.7155658163902
 20
117.3182033297457
 10
130.7239740024347
 20
117.2952611473374
 10
130.7344815435095
 20
117.2734170890989
 10
130.7469915463055
 20
117.2528218779553
 10
130.761374819744
 20
117.2335939390622
 10
130.7775021727462
 20
117.2158624634984
 10
130.79523364831
 20
117.1997458764195
 10
130.8144615872031
 20
117.185362602981
 10
130.8350567983467
 20
117.172852600185
 10
130.856890090662
 20
117.1623342931869
 10
130.8798430389935
 20
117.1539368730656
 10
130.9037756863391
 20
117.1477787649767
 10
130.9285696075434
 20
117.1439999259221
 97
        0
 75
     1
 76
     1
 98
        0
  0
LWPOLYLINE
  5
87
330
1F
100
AcDbEntity
  8
ISS138金台
  6
Continuous
 62
   250
420
  2367521
370
    13
100
AcDbPolyline
 90
       68
 70
     0
 43
0.0
 10
130.9541063774506
 20
117.1427080151342
 10
130.9796969769741
 20
117.1439999259221
 10
131.0045554937177
 20
117.1477787649767
 10
131.0285312047563
 20
117.1539261071424
 10
131.0515272167807
 20
117.1623342931869
 10
131.073403572789
 20
117.172852600185
 10
131.0940095498558
 20
117.1853733689043
 10
131.1132697865186
 20
117.1997458764195
 10
131.1310227939288
 20
117.2158624634984
 10
131.1471609128542
 20
117.2336047049854
 10
131.1615549522159
 20
117.2528326438785
 10
131.1740757209352
 20
117.2734170890989
 10
131.1845940279333
 20
117.2952503814142
 10
131.1930022139778
 20
117.3182033297457
 10
131.1991495561435
 20
117.3421359770913
 10
131.2029391611213
 20
117.3669406642188
 10
131.2042310719092
 20
117.3924774341261
 10
131.2042310719092
 20
117.3924774341261
 10
131.2029499270446
 20
117.4180787995728
 10
131.1991495561435
 20
117.4429157844699
 10
131.1929914480546
 20
117.466913027355
 10
131.1845940279333
 20
117.4898982734562
 10
131.174064955012
 20
117.5117638635412
 10
131.1615441862927
 20
117.5323913724545
 10
131.1471609128542
 20
117.551640843194
 10
131.1310227939288
 20
117.5693938506043
 10
131.1132697865186
 20
117.5855319695297
 10
131.094020315779
 20
117.5999152429682
 10
131.0733928068657
 20
117.6124360116874
 10
131.0515272167807
 20
117.6229543186855
 10
131.0285419706795
 20
117.63136250473
 10
131.0045554937177
 20
117.637520612819
 10
130.9797077428973
 20
117.6412994518735
 10
130.9541063774506
 20
117.6425913626614
 10
130.9541063774506
 20
117.6425913626614
 10
130.9285696075434
 20
117.6412994518735
 10
130.9037756863391
 20
117.6375098468957
 10
130.8798322730702
 20
117.63136250473
 10
130.8568793247388
 20
117.6229543186855
 10
130.8350460324234
 20
117.6124252457642
 10
130.8144615872031
 20
117.5999152429682
 10
130.79523364831
 20
117.5855319695297
 10
130.7775021727462
 20
117.5693938506043
 10
130.761374819744
 20
117.551640843194
 10
130.7470023122288
 20
117.5323913724545
 10
130.7344815435095
 20
117.5117638635412
 10
130.7239632365115
 20
117.4898982734562
 10
130.7155658163902
 20
117.466913027355
 10
130.7094077083012
 20
117.4429265503932
 10
130.7056288692467
 20
117.4180787995728
 10
130.7043369584588
 20
117.3924774341261
 10
130.7043369584588
 20
117.3924774341261
 10
130.7056288692467
 20
117.3669298982956
 10
130.7094077083012
 20
117.3421467430146
 10
130.7155658163902
 20
117.3182033297457
 10
130.7239740024347
 20
117.2952611473374
 10
130.7344815435095
 20
117.2734170890989
 10
130.7469915463055
 20
117.2528218779553
 10
130.761374819744
 20
117.2335939390622
 10
130.7775021727462
 20
117.2158624634984
 10
130.79523364831
 20
117.1997458764195
 10
130.8144615872031
 20
117.185362602981
 10
130.8350567983467
 20
117.172852600185
 10
130.856890090662
 20
117.1623342931869
 10
130.8798430389935
 20
117.1539368730656
 10
130.9037756863391
 20
117.1477787649767
 10
130.9285696075434
 20
117.1439999259221
 10
130.9541063774506
 20
117.1427080151342
  0
HATCH
  5
88
330
1F
100
AcDbEntity
  8
ISS138金台
  6
Continuous
 62
     7
420
 16777215
370
    25
100
AcDbHatch
 10
0.0
 20
0.0
 30
0.0
210
0.0
220
0.0
230
1.0
  2
SOLID
 70
     1
 71
     0
 91
        1
 92
        3
 72
     0
 73
     1
 93
      130
 10
113.9263669176055
 20
109.5075152587095
 10
114.1547552130578
 20
109.5019923400913
 10
114.383089678894
 20
109.485671200471
 10
114.6093247896998
 20
109.4589178812384
 10
114.8314473178309
 20
109.4220768919371
 10
115.0473902060265
 20
109.3755250398802
 10
115.2551509925656
 20
109.3196176005343
 10
115.4526841520338
 20
109.2547206152893
 10
115.6379549249404
 20
109.181189359612
 10
115.8089393177175
 20
109.0994006408154
 10
115.9635702731046
 20
109.0096989684429
 10
116.0998560953037
 20
108.9124503838846
 10
116.2157404929773
 20
108.8080209285302
 10
116.3091887066346
 20
108.6967658778465
 10
116.3781767427079
 20
108.5790620391466
 10
116.420659075783
 20
108.4552539219739
 10
116.4346117122922
 20
108.3257075677183
 10
115.1233437944312
 20
108.3327700133587
 10
115.1071087821967
 20
105.3320380604055
 10
118.9315738194313
 20
105.3320380604055
 10
122.7338179911142
 20
105.3320380604055
 10
122.717593744803
 20
108.3327700133587
 10
121.4500570071121
 20
108.3257075677183
 10
121.4626639032172
 20
108.4482883696425
 10
121.5013135676216
 20
108.5675747990576
 10
121.564520302919
 20
108.6828670709535
 10
121.6507661139339
 20
108.7935838254756
 10
121.7585868351064
 20
108.8990252776138
 10
121.8864429394146
 20
108.9985670038206
 10
122.0328702612985
 20
109.0915415168557
 10
122.1963508055827
 20
109.1773136272483
 10
122.3753988748609
 20
109.2552266136813
 10
122.5685180058038
 20
109.3246560526071
 10
122.7741902032358
 20
109.3849129249389
 10
122.9909297697507
 20
109.4353728071292
 10
123.2172294760959
 20
109.4753789778608
 10
123.4516036248654
 20
109.504296247663
 10
123.6925449868068
 20
109.5214571292955
 10
123.9385570985905
 20
109.5262156673642
 10
123.9385570985905
 20
109.5262156673642
 10
123.9896091065586
 20
109.5237072072511
 10
124.0391538852742
 20
109.5162894861439
 10
124.0869330525796
 20
109.5042424180469
 10
124.1327097581638
 20
109.4877705555013
 10
124.1762471517157
 20
109.4671215147415
 10
124.2172760851544
 20
109.4425321460787
 10
124.2555812400153
 20
109.4142285339007
 10
124.2908934682176
 20
109.3824475285186
 10
124.3229651535269
 20
109.3474367461668
 10
124.3515594456322
 20
109.30941150531
 10
124.3764394942223
 20
109.2686194221824
 10
124.3973361512164
 20
109.2252865811719
 10
124.4140233322266
 20
109.1796390666665
 10
124.4262426550955
 20
109.1319352608237
 10
124.4337572695117
 20
109.0824012480314
 10
124.436319559241
 20
109.0312631126775
 10
124.436319559241
 20
109.0312631126775
 10
124.4337465035884
 20
108.9801249773235
 10
124.4261565277096
 20
108.9304725393756
 10
124.4138295456085
 20
108.8825641809914
 10
124.3970131735195
 20
108.8366259865587
 10
124.3759442617536
 20
108.7929271041584
 10
124.3508919583918
 20
108.7517151500247
 10
124.3221038796683
 20
108.7132377403921
 10
124.2898276418176
 20
108.6777317255716
 10
124.2543216269971
 20
108.6454877854905
 10
124.2158334514412
 20
108.6167212386135
 10
124.1746214973076
 20
108.5916904670982
 10
124.1309333808305
 20
108.5706430871788
 10
124.0850167182442
 20
108.553837481013
 10
124.0371191257832
 20
108.5415320307584
 10
123.9875097515283
 20
108.533963586726
 10
123.9364362117137
 20
108.5313797651502
 10
123.9325497134269
 20
105.5320581481404
 10
130.7330496757196
 20
105.5313583631303
 10
130.9193216794867
 20
105.3380346796459
 10
131.1412181232299
 20
105.5306478121969
 10
134.2703552425762
 20
105.3553247523572
 10
142.4272861706898
 20
104.8346201092985
 10
142.478252051272
 20
104.832003989953
 10
142.5274415545209
 20
104.8242955889186
 10
142.5746178301253
 20
104.8117963520457
 10
142.6196086233136
 20
104.7947538955689
 10
142.6621878496978
 20
104.7734266016454
 10
142.7021509567365
 20
104.7480728524331
 10
142.7392933918883
 20
104.7189725619359
 10
142.7734106026118
 20
104.686362580465
 10
142.8042872704423
 20
104.6505335879475
 10
142.8317080769153
 20
104.6117224346947
 10
142.8554900013357
 20
104.5702090347105
 10
142.8754069593156
 20
104.5262517701526
 10
142.891265164237
 20
104.4801090231785
 10
142.9028385317118
 20
104.4320391759457
 10
142.9099440410452
 20
104.3823221424585
 10
142.9123556078492
 20
104.331205538951
 10
118.9315738194313
 20
104.3273298065873
 10
113.9263669176055
 20
104.3273298065873
 10
113.9263669176055
 20
107.1350825855997
 10
113.8148642506874
 20
107.1402179309815
 10
113.7042336235512
 20
107.1554947760483
 10
113.5953040122856
 20
107.1807193341819
 10
113.4889689885191
 20
107.215697818764
 10
113.3860682942638
 20
107.2602364431764
 10
113.2874739693014
 20
107.3141414208011
 10
113.1940257556441
 20
107.3772081990966
 10
113.1065956930737
 20
107.4492752892143
 10
113.0260450554488
 20
107.5301166067665
 10
112.9532135847815
 20
107.6195491310581
 10
112.8889625549305
 20
107.717379075471
 10
112.8341640056776
 20
107.823412653387
 10
112.789668444958
 20
107.9374560781879
 10
112.7563371466305
 20
108.0593155632556
 10
112.7350098527071
 20
108.1887973219717
 10
112.7265693688929
 20
108.3257075677183
 10
112.7265693688929
 20
108.3257075677183
 10
112.7296699547838
 20
108.4117380602685
 10
112.7412217904122
 20
108.5034637262086
 10
112.7614940238588
 20
108.599280442977
 10
112.7907127395115
 20
108.6976379176283
 10
112.8291147876815
 20
108.796985857217
 10
112.8769370186799
 20
108.8957524369511
 10
112.9344378146642
 20
108.9923658320388
 10
113.0018324940991
 20
109.0852865154577
 10
113.0793686732189
 20
109.1729211305695
 10
113.167293968258
 20
109.253730150352
 10
113.2658452295275
 20
109.3261417500132
 10
113.3752593073384
 20
109.3885948706844
 10
113.4957838179253
 20
109.4395176875736
 10
113.6276448456758
 20
109.4773491418123
 10
113.7711007727477
 20
109.5005389404549
 97
        0
 75
     1
 76
     1
 98
        0
  0
LWPOLYLINE
  5
89
330
1F
100
AcDbEntity
  8
ISS138金台
  6
Continuous
 62
   250
420
  2367521
370
    25
100
AcDbPolyline
 90
      131
 70
     0
 43
0.0
 10
113.9263669176055
 20
109.5075152587095
 10
114.1547552130578
 20
109.5019923400913
 10
114.383089678894
 20
109.485671200471
 10
114.6093247896998
 20
109.4589178812384
 10
114.8314473178309
 20
109.4220768919371
 10
115.0473902060265
 20
109.3755250398802
 10
115.2551509925656
 20
109.3196176005343
 10
115.4526841520338
 20
109.2547206152893
 10
115.6379549249404
 20
109.181189359612
 10
115.8089393177175
 20
109.0994006408154
 10
115.9635702731046
 20
109.0096989684429
 10
116.0998560953037
 20
108.9124503838846
 10
116.2157404929773
 20
108.8080209285302
 10
116.3091887066346
 20
108.6967658778465
 10
116.3781767427079
 20
108.5790620391466
 10
116.420659075783
 20
108.4552539219739
 10
116.4346117122922
 20
108.3257075677183
 10
115.1233437944312
 20
108.3327700133587
 10
115.1071087821967
 20
105.3320380604055
 10
118.9315738194313
 20
105.3320380604055
 10
122.7338179911142
 20
105.3320380604055
 10
122.717593744803
 20
108.3327700133587
 10
121.4500570071121
 20
108.3257075677183
 10
121.4626639032172
 20
108.4482883696425
 10
121.5013135676216
 20
108.5675747990576
 10
121.564520302919
 20
108.6828670709535
 10
121.6507661139339
 20
108.7935838254756
 10
121.7585868351064
 20
108.8990252776138
 10
121.8864429394146
 20
108.9985670038206
 10
122.0328702612985
 20
109.0915415168557
 10
122.1963508055827
 20
109.1773136272483
 10
122.3753988748609
 20
109.2552266136813
 10
122.5685180058038
 20
109.3246560526071
 10
122.7741902032358
 20
109.3849129249389
 10
122.9909297697507
 20
109.4353728071292
 10
123.2172294760959
 20
109.4753789778608
 10
123.4516036248654
 20
109.504296247663
 10
123.6925449868068
 20
109.5214571292955
 10
123.9385570985905
 20
109.5262156673642
 10
123.9385570985905
 20
109.5262156673642
 10
123.9896091065586
 20
109.5237072072511
 10
124.0391538852742
 20
109.5162894861439
 10
124.0869330525796
 20
109.5042424180469
 10
124.1327097581638
 20
109.4877705555013
 10
124.1762471517157
 20
109.4671215147415
 10
124.2172760851544
 20
109.4425321460787
 10
124.2555812400153
 20
109.4142285339007
 10
124.2908934682176
 20
109.3824475285186
 10
124.3229651535269
 20
109.3474367461668
 10
124.3515594456322
 20
109.30941150531
 10
124.3764394942223
 20
109.2686194221824
 10
124.3973361512164
 20
109.2252865811719
 10
124.4140233322266
 20
109.1796390666665
 10
124.4262426550955
 20
109.1319352608237
 10
124.4337572695117
 20
109.0824012480314
 10
124.436319559241
 20
109.0312631126775
 10
124.436319559241
 20
109.0312631126775
 10
124.4337465035884
 20
108.9801249773235
 10
124.4261565277096
 20
108.9304725393756
 10
124.4138295456085
 20
108.8825641809914
 10
124.3970131735195
 20
108.8366259865587
 10
124.3759442617536
 20
108.7929271041584
 10
124.3508919583918
 20
108.7517151500247
 10
124.3221038796683
 20
108.7132377403921
 10
124.2898276418176
 20
108.6777317255716
 10
124.2543216269971
 20
108.6454877854905
 10
124.2158334514412
 20
108.6167212386135
 10
124.1746214973076
 20
108.5916904670982
 10
124.1309333808305
 20
108.5706430871788
 10
124.0850167182442
 20
108.553837481013
 10
124.0371191257832
 20
108.5415320307584
 10
123.9875097515283
 20
108.533963586726
 10
123.9364362117137
 20
108.5313797651502
 10
123.9325497134269
 20
105.5320581481404
 10
130.7330496757196
 20
105.5313583631303
 10
130.9193216794867
 20
105.3380346796459
 10
131.1412181232299
 20
105.5306478121969
 10
134.2703552425762
 20
105.3553247523572
 10
142.4272861706898
 20
104.8346201092985
 10
142.478252051272
 20
104.832003989953
 10
142.5274415545209
 20
104.8242955889186
 10
142.5746178301253
 20
104.8117963520457
 10
142.6196086233136
 20
104.7947538955689
 10
142.6621878496978
 20
104.7734266016454
 10
142.7021509567365
 20
104.7480728524331
 10
142.7392933918883
 20
104.7189725619359
 10
142.7734106026118
 20
104.686362580465
 10
142.8042872704423
 20
104.6505335879475
 10
142.8317080769153
 20
104.6117224346947
 10
142.8554900013357
 20
104.5702090347105
 10
142.8754069593156
 20
104.5262517701526
 10
142.891265164237
 20
104.4801090231785
 10
142.9028385317118
 20
104.4320391759457
 10
142.9099440410452
 20
104.3823221424585
 10
142.9123556078492
 20
104.331205538951
 10
118.9315738194313
 20
104.3273298065873
 10
113.9263669176055
 20
104.3273298065873
 10
113.9263669176055
 20
107.1350825855997
 10
113.8148642506874
 20
107.1402179309815
 10
113.7042336235512
 20
107.1554947760483
 10
113.5953040122856
 20
107.1807193341819
 10
113.4889689885191
 20
107.215697818764
 10
113.3860682942638
 20
107.2602364431764
 10
113.2874739693014
 20
107.3141414208011
 10
113.1940257556441
 20
107.3772081990966
 10
113.1065956930737
 20
107.4492752892143
 10
113.0260450554488
 20
107.5301166067665
 10
112.9532135847815
 20
107.6195491310581
 10
112.8889625549305
 20
107.717379075471
 10
112.8341640056776
 20
107.823412653387
 10
112.789668444958
 20
107.9374560781879
 10
112.7563371466305
 20
108.0593155632556
 10
112.7350098527071
 20
108.1887973219717
 10
112.7265693688929
 20
108.3257075677183
 10
112.7265693688929
 20
108.3257075677183
 10
112.7296699547838
 20
108.4117380602685
 10
112.7412217904122
 20
108.5034637262086
 10
112.7614940238588
 20
108.599280442977
 10
112.7907127395115
 20
108.6976379176283
 10
112.8291147876815
 20
108.796985857217
 10
112.8769370186799
 20
108.8957524369511
 10
112.9344378146642
 20
108.9923658320388
 10
113.0018324940991
 20
109.0852865154577
 10
113.0793686732189
 20
109.1729211305695
 10
113.167293968258
 20
109.253730150352
 10
113.2658452295275
 20
109.3261417500132
 10
113.3752593073384
 20
109.3885948706844
 10
113.4957838179253
 20
109.4395176875736
 10
113.6276448456758
 20
109.4773491418123
 10
113.7711007727477
 20
109.5005389404549
 10
113.9263669176055
 20
109.5075152587095
  0
LINE
  5
8A
330
1F
100
AcDbEntity
  8
ISS138金台
  6
Continuous
 62
   250
420
  2367521
370
    13
100
AcDbLine
 10
143.9565747999303
 20
108.5353308589765
 30
0.0
 11
148.9395608362045
 21
108.5353308589765
 31
0.0
  0
LINE
  5
8B
330
1F
100
AcDbEntity
  8
ISS138金台
  6
Continuous
 62
   250
420
  2367521
370
    13
100
AcDbLine
 10
143.9565747999303
 20
105.5367197929
 30
0.0
 11
148.9395608362045
 21
105.5367197929
 31
0.0
  0
LINE
  5
8C
330
1F
100
AcDbEntity
  8
ISS138金台
  6
Continuous
 62
   250
420
  2367521
370
    13
100
AcDbLine
 10
142.9643873148315
 20
103.3539073256826
 30
0.0
 11
142.9643873148315
 21
92.79245050730323
 31
0.0
  0
LINE
  5
8D
330
1F
100
AcDbEntity
  8
ISS138金台
  6
Continuous
 62
   250
420
  2367521
370
    13
100
AcDbLine
 10
142.9643873148315
 20
93.7848102471738
 30
0.0
 11
113.9484155283854
 21
93.7848102471738
 31
0.0
  0
LINE
  5
8E
330
1F
100
AcDbEntity
  8
ISS138金台
  6
Continuous
 62
   250
420
  2367521
370
    13
100
AcDbLine
 10
113.9484155283854
 20
103.3539073256826
 30
0.0
 11
113.9484155283854
 21
92.79245050730323
 31
0.0
  0
HATCH
  5
8F
330
1F
100
AcDbEntity
  8
ISS138金台
  6
Continuous
 62
   250
420
  2367521
370
    13
100
AcDbHatch
 10
0.0
 20
0.0
 30
0.0
210
0.0
220
0.0
230
1.0
  2
SOLID
 70
     1
 71
     0
 91
        1
 92
        3
 72
     0
 73
     1
 93
       67
 10
142.9864359256115
 20
93.53468555271522
 10
143.0119726955188
 20
93.53598822942635
 10
143.0367773826462
 20
93.53976706848093
 10
143.0607315618383
 20
93.54594670841632
 10
143.0837168079395
 20
93.5543764263073
 10
143.1055608661781
 20
93.56491626515182
 10
143.1261883750914
 20
93.57745856571759
 10
143.1454486117541
 20
93.59186337100255
 10
143.1632231510109
 20
93.60802302177439
 10
143.1793720358594
 20
93.6257975610311
 10
143.1937876070677
 20
93.64504703177064
 10
143.2063299076334
 20
93.66567454068394
 10
143.2168697464779
 20
93.68752936484574
 10
143.2252994643689
 20
93.7105038450237
 10
143.2314683383811
 20
93.7344580242158
 10
143.2352687092821
 20
93.7592734772665
 10
143.23656062007
 20
93.7848102471738
 10
143.23656062007
 20
93.7848102471738
 10
143.2352579433589
 20
93.81034701708106
 10
143.2314683383811
 20
93.83516247013176
 10
143.2252994643689
 20
93.85911664932388
 10
143.2168697464779
 20
93.88209112950184
 10
143.2063299076334
 20
93.90394595366362
 10
143.1937876070677
 20
93.92456269665368
 10
143.1793828017827
 20
93.94382293331647
 10
143.1632231510109
 20
93.96159747257317
 10
143.1454486117541
 20
93.9777463574218
 10
143.1261883750914
 20
93.99216192863
 10
143.1055716321013
 20
94.0046934632725
 10
143.0837060420163
 20
94.01524406804027
 10
143.0607423277615
 20
94.02366302000802
 10
143.0367881485694
 20
94.02983189402019
 10
143.0119726955188
 20
94.03363226492124
 10
142.9864359256115
 20
94.03492417570911
 10
142.9864359256115
 20
94.03492417570911
 10
142.960888389781
 20
94.03364303084446
 10
142.9360837026535
 20
94.02983189402019
 10
142.9121295234614
 20
94.02366302000802
 10
142.8891658092066
 20
94.01524406804027
 10
142.8673002191216
 20
94.0046934632725
 10
142.8466834761315
 20
93.99215116270676
 10
142.8274124735455
 20
93.9777463574218
 10
142.8096487002121
 20
93.96159747257317
 10
142.7934890494402
 20
93.94382293331647
 10
142.7790842441553
 20
93.92456269665368
 10
142.7665419435895
 20
93.90393518774039
 10
142.7559913388217
 20
93.88208036357861
 10
142.747572386854
 20
93.85911664932388
 10
142.7414035128418
 20
93.83516247013176
 10
142.7376031419408
 20
93.81034701708106
 10
142.7363112311529
 20
93.7848102471738
 10
142.7363112311529
 20
93.7848102471738
 10
142.737613907864
 20
93.7592734772665
 10
142.7413927469186
 20
93.7344580242158
 10
142.747572386854
 20
93.71051461094693
 10
142.756002104745
 20
93.68754013076897
 10
142.7665419435895
 20
93.66567454068394
 10
142.7790842441553
 20
93.64504703177064
 10
142.7934998153634
 20
93.62578679510787
 10
142.8096487002121
 20
93.60802302177439
 10
142.8274124735455
 20
93.59187413692578
 10
142.8466834761315
 20
93.57745856571759
 10
142.8673109850449
 20
93.56491626515182
 10
142.8891658092066
 20
93.55436566038406
 10
142.9121402893846
 20
93.54594670841632
 10
142.9360837026535
 20
93.53977783440415
 10
142.9608991557042
 20
93.53597746350312
 97
        0
 75
     1
 76
     1
 98
        0
  0
LWPOLYLINE
  5
90
330
1F
100
AcDbEntity
  8
ISS138金台
  6
Continuous
 62
   250
420
  2367521
370
    13
100
AcDbPolyline
 90
       68
 70
     0
 43
0.0
 10
142.9864359256115
 20
93.53468555271522
 10
143.0119726955188
 20
93.53598822942635
 10
143.0367773826462
 20
93.53976706848093
 10
143.0607315618383
 20
93.54594670841632
 10
143.0837168079395
 20
93.5543764263073
 10
143.1055608661781
 20
93.56491626515182
 10
143.1261883750914
 20
93.57745856571759
 10
143.1454486117541
 20
93.59186337100255
 10
143.1632231510109
 20
93.60802302177439
 10
143.1793720358594
 20
93.6257975610311
 10
143.1937876070677
 20
93.64504703177064
 10
143.2063299076334
 20
93.66567454068394
 10
143.2168697464779
 20
93.68752936484574
 10
143.2252994643689
 20
93.7105038450237
 10
143.2314683383811
 20
93.7344580242158
 10
143.2352687092821
 20
93.7592734772665
 10
143.23656062007
 20
93.7848102471738
 10
143.23656062007
 20
93.7848102471738
 10
143.2352579433589
 20
93.81034701708106
 10
143.2314683383811
 20
93.83516247013176
 10
143.2252994643689
 20
93.85911664932388
 10
143.2168697464779
 20
93.88209112950184
 10
143.2063299076334
 20
93.90394595366362
 10
143.1937876070677
 20
93.92456269665368
 10
143.1793828017827
 20
93.94382293331647
 10
143.1632231510109
 20
93.96159747257317
 10
143.1454486117541
 20
93.9777463574218
 10
143.1261883750914
 20
93.99216192863
 10
143.1055716321013
 20
94.0046934632725
 10
143.0837060420163
 20
94.01524406804027
 10
143.0607423277615
 20
94.02366302000802
 10
143.0367881485694
 20
94.02983189402019
 10
143.0119726955188
 20
94.03363226492124
 10
142.9864359256115
 20
94.03492417570911
 10
142.9864359256115
 20
94.03492417570911
 10
142.960888389781
 20
94.03364303084446
 10
142.9360837026535
 20
94.02983189402019
 10
142.9121295234614
 20
94.02366302000802
 10
142.8891658092066
 20
94.01524406804027
 10
142.8673002191216
 20
94.0046934632725
 10
142.8466834761315
 20
93.99215116270676
 10
142.8274124735455
 20
93.9777463574218
 10
142.8096487002121
 20
93.96159747257317
 10
142.7934890494402
 20
93.94382293331647
 10
142.7790842441553
 20
93.92456269665368
 10
142.7665419435895
 20
93.90393518774039
 10
142.7559913388217
 20
93.88208036357861
 10
142.747572386854
 20
93.85911664932388
 10
142.7414035128418
 20
93.83516247013176
 10
142.7376031419408
 20
93.81034701708106
 10
142.7363112311529
 20
93.7848102471738
 10
142.7363112311529
 20
93.7848102471738
 10
142.737613907864
 20
93.7592734772665
 10
142.7413927469186
 20
93.7344580242158
 10
142.747572386854
 20
93.71051461094693
 10
142.756002104745
 20
93.68754013076897
 10
142.7665419435895
 20
93.66567454068394
 10
142.7790842441553
 20
93.64504703177064
 10
142.7934998153634
 20
93.62578679510787
 10
142.8096487002121
 20
93.60802302177439
 10
142.8274124735455
 20
93.59187413692578
 10
142.8466834761315
 20
93.57745856571759
 10
142.8673109850449
 20
93.56491626515182
 10
142.8891658092066
 20
93.55436566038406
 10
142.9121402893846
 20
93.54594670841632
 10
142.9360837026535
 20
93.53977783440415
 10
142.9608991557042
 20
93.53597746350312
 10
142.9864359256115
 20
93.53468555271522
  0
HATCH
  5
91
330
1F
100
AcDbEntity
  8
ISS138金台
  6
Continuous
 62
   250
420
  2367521
370
    13
100
AcDbHatch
 10
0.0
 20
0.0
 30
0.0
210
0.0
220
0.0
230
1.0
  2
SOLID
 70
     1
 71
     0
 91
        1
 92
        3
 72
     0
 73
     1
 93
       67
 10
113.9484155283854
 20
93.51264770785848
 10
113.9739522982927
 20
93.51393961864636
 10
113.9987677513434
 20
93.51772922362417
 10
114.0227111646123
 20
93.52390886355957
 10
114.0456964107135
 20
93.53233858145055
 10
114.0675404689521
 20
93.54287842029508
 10
114.0881679778653
 20
93.55542072086084
 10
114.1074389804514
 20
93.5698255261458
 10
114.1252027537848
 20
93.58598517691766
 10
114.1413624045567
 20
93.60374895025112
 10
114.1557672098416
 20
93.6230091869139
 10
114.1683095104074
 20
93.64363669582721
 10
114.1788493492519
 20
93.66549151998899
 10
114.1872790671429
 20
93.68846600016695
 10
114.1934479411551
 20
93.71242017935907
 10
114.1972483120561
 20
93.73722486648654
 10
114.198540222844
 20
93.76277240231704
 10
114.198540222844
 20
93.76277240231704
 10
114.1972483120561
 20
93.78831993814755
 10
114.1934479411551
 20
93.81312462527502
 10
114.1872790671429
 20
93.83707880446713
 10
114.1788493492519
 20
93.86004251872185
 10
114.1683095104074
 20
93.88189734288366
 10
114.1557672098416
 20
93.90252485179695
 10
114.1413516386335
 20
93.92178508845973
 10
114.1252027537848
 20
93.93954886179321
 10
114.1074389804514
 20
93.95570851256505
 10
114.0881787437886
 20
93.97011331785001
 10
114.0675512348753
 20
93.98265561841578
 10
114.0456856447903
 20
93.99320622318353
 10
114.0227219305355
 20
94.00162517515128
 10
113.9987677513434
 20
94.00779404916344
 10
113.9739522982927
 20
94.01159442006448
 10
113.9484155283854
 20
94.01288633085238
 10
113.9484155283854
 20
94.01288633085238
 10
113.9228679925549
 20
94.01158365414125
 10
113.8980740713507
 20
94.00780481508667
 10
113.8741198921586
 20
94.00162517515128
 10
113.8511454119806
 20
93.99320622318353
 10
113.8292798218956
 20
93.98265561841578
 10
113.8086630789055
 20
93.97011331785001
 10
113.7894028422428
 20
93.95570851256505
 10
113.7716283029861
 20
93.93954886179321
 10
113.7554794181374
 20
93.92178508845973
 10
113.7410638469292
 20
93.90252485179695
 10
113.7285215463635
 20
93.88190810880688
 10
113.7179709415957
 20
93.86004251872185
 10
113.709551989628
 20
93.83707880446713
 10
113.7033831156158
 20
93.81312462527502
 10
113.6995827447148
 20
93.78830917222432
 10
113.6982908339269
 20
93.76277240231704
 10
113.6982908339269
 20
93.76277240231704
 10
113.6995827447148
 20
93.73723563240978
 10
113.7033723496926
 20
93.71242017935907
 10
113.7095627555512
 20
93.68846600016695
 10
113.717981707519
 20
93.66550228591223
 10
113.7285215463635
 20
93.64362592990398
 10
113.7410638469292
 20
93.6230091869139
 10
113.7554686522142
 20
93.60374895025112
 10
113.7716283029861
 20
93.58598517691766
 10
113.7894028422428
 20
93.5698255261458
 10
113.8086630789055
 20
93.55542072086084
 10
113.8292798218956
 20
93.54287842029508
 10
113.8511454119806
 20
93.53232781552732
 10
113.8741198921586
 20
93.52390886355957
 10
113.8980633054275
 20
93.51773998954741
 10
113.9228787584782
 20
93.51393961864636
 97
        0
 75
     1
 76
     1
 98
        0
  0
LWPOLYLINE
  5
92
330
1F
100
AcDbEntity
  8
ISS138金台
  6
Continuous
 62
   250
420
  2367521
370
    13
100
AcDbPolyline
 90
       68
 70
     0
 43
0.0
 10
113.9484155283854
 20
93.51264770785848
 10
113.9739522982927
 20
93.51393961864636
 10
113.9987677513434
 20
93.51772922362417
 10
114.0227111646123
 20
93.52390886355957
 10
114.0456964107135
 20
93.53233858145055
 10
114.0675404689521
 20
93.54287842029508
 10
114.0881679778653
 20
93.55542072086084
 10
114.1074389804514
 20
93.5698255261458
 10
114.1252027537848
 20
93.58598517691766
 10
114.1413624045567
 20
93.60374895025112
 10
114.1557672098416
 20
93.6230091869139
 10
114.1683095104074
 20
93.64363669582721
 10
114.1788493492519
 20
93.66549151998899
 10
114.1872790671429
 20
93.68846600016695
 10
114.1934479411551
 20
93.71242017935907
 10
114.1972483120561
 20
93.73722486648654
 10
114.198540222844
 20
93.76277240231704
 10
114.198540222844
 20
93.76277240231704
 10
114.1972483120561
 20
93.78831993814755
 10
114.1934479411551
 20
93.81312462527502
 10
114.1872790671429
 20
93.83707880446713
 10
114.1788493492519
 20
93.86004251872185
 10
114.1683095104074
 20
93.88189734288366
 10
114.1557672098416
 20
93.90252485179695
 10
114.1413516386335
 20
93.92178508845973
 10
114.1252027537848
 20
93.93954886179321
 10
114.1074389804514
 20
93.95570851256505
 10
114.0881787437886
 20
93.97011331785001
 10
114.0675512348753
 20
93.98265561841578
 10
114.0456856447903
 20
93.99320622318353
 10
114.0227219305355
 20
94.00162517515128
 10
113.9987677513434
 20
94.00779404916344
 10
113.9739522982927
 20
94.01159442006448
 10
113.9484155283854
 20
94.01288633085238
 10
113.9484155283854
 20
94.01288633085238
 10
113.9228679925549
 20
94.01158365414125
 10
113.8980740713507
 20
94.00780481508667
 10
113.8741198921586
 20
94.00162517515128
 10
113.8511454119806
 20
93.99320622318353
 10
113.8292798218956
 20
93.98265561841578
 10
113.8086630789055
 20
93.97011331785001
 10
113.7894028422428
 20
93.95570851256505
 10
113.7716283029861
 20
93.93954886179321
 10
113.7554794181374
 20
93.92178508845973
 10
113.7410638469292
 20
93.90252485179695
 10
113.7285215463635
 20
93.88190810880688
 10
113.7179709415957
 20
93.86004251872185
 10
113.709551989628
 20
93.83707880446713
 10
113.7033831156158
 20
93.81312462527502
 10
113.6995827447148
 20
93.78830917222432
 10
113.6982908339269
 20
93.76277240231704
 10
113.6982908339269
 20
93.76277240231704
 10
113.6995827447148
 20
93.73723563240978
 10
113.7033723496926
 20
93.71242017935907
 10
113.7095627555512
 20
93.68846600016695
 10
113.717981707519
 20
93.66550228591223
 10
113.7285215463635
 20
93.64362592990398
 10
113.7410638469292
 20
93.6230091869139
 10
113.7554686522142
 20
93.60374895025112
 10
113.7716283029861
 20
93.58598517691766
 10
113.7894028422428
 20
93.5698255261458
 10
113.8086630789055
 20
93.55542072086084
 10
113.8292798218956
 20
93.54287842029508
 10
113.8511454119806
 20
93.53232781552732
 10
113.8741198921586
 20
93.52390886355957
 10
113.8980633054275
 20
93.51773998954741
 10
113.9228787584782
 20
93.51393961864636
 10
113.9484155283854
 20
93.51264770785848
  0
LINE
  5
93
330
1F
100
AcDbEntity
  8
ISS138金台
  6
UserDefined01
 62
   140
420
    44526
370
    13
100
AcDbLine
 10
130.7935541642857
 20
99.4072059960672
 30
0.0
 11
142.9643873148315
 21
99.4072059960672
 31
0.0
  0
HATCH
  5
94
330
1F
100
AcDbEntity
  8
ISS138金台
  6
Continuous
 62
   140
420
    44526
370
    13
100
AcDbHatch
 10
0.0
 20
0.0
 30
0.0
210
0.0
220
0.0
230
1.0
  2
SOLID
 70
     1
 71
     0
 91
        1
 92
        3
 72
     0
 73
     1
 93
        3
 10
130.058047820894
 20
107.2971527939404
 10
131.7901879756795
 20
107.296442243007
 10
130.9248230662585
 20
105.7985578118355
 97
        0
 75
     1
 76
     1
 98
        0
  0
LWPOLYLINE
  5
95
330
1F
100
AcDbEntity
  8
ISS138金台
  6
Continuous
 62
   140
420
    44526
370
    13
100
AcDbPolyline
 90
        4
 70
     0
 43
0.0
 10
130.058047820894
 20
107.2971527939404
 10
131.7901879756795
 20
107.296442243007
 10
130.9248230662585
 20
105.7985578118355
 10
130.058047820894
 20
107.2971527939404
  0
TEXT
  5
96
330
1F
100
AcDbEntity
  8
ISS138金台
  6
Continuous
 62
   250
420
  2367521
100
AcDbText
 10
126.3716665150383
 20
95.5921213508087
 30
0.0
 40
2.150533301035563
  1
29
 41
1.030998229980469
  7
MS Gothic
100
AcDbText
  0
TEXT
  5
97
330
1F
100
AcDbEntity
  8
ISS138金台
  6
Continuous
 62
   250
420
  2367521
100
AcDbText
 10
146.7556900356696
 20
106.1767216139029
 30
0.0
 40
2.150533301035563
  1
3
 50
90.00000250447816
 41
0.7819976806640623
  7
MS Gothic
100
AcDbText
  0
TEXT
  5
98
330
1F
100
AcDbEntity
  8
ISS138金台
  6
Continuous
 62
   140
420
    44526
100
AcDbText
 10
135.6121876164939
 20
101.1665087474229
 30
0.0
 40
1.881716638406118
  1
12
 41
1.216250828334263
  7
MS Gothic
100
AcDbText
  0
LINE
  5
99
330
1F
100
AcDbEntity
  8
ISS138金台
  6
Continuous
 62
   250
420
  2367521
370
    13
100
AcDbLine
 10
148.6091869499716
 20
105.4450587224993
 30
0.0
 11
148.6091869499716
 21
108.6137067801085
 31
0.0
  0
HATCH
  5
9A
330
1F
100
AcDbEntity
  8
ISS138金台
  6
Continuous
 62
   250
420
  2367521
370
    13
100
AcDbHatch
 10
0.0
 20
0.0
 30
0.0
210
0.0
220
0.0
230
1.0
  2
SOLID
 70
     1
 71
     0
 91
        1
 92
        3
 72
     0
 73
     1
 93
       67
 10
148.6091869499716
 20
105.2865950984415
 10
148.6347344858021
 20
105.2878977751526
 10
148.6595391729295
 20
105.2916766142072
 10
148.6834825861984
 20
105.2978454882193
 10
148.7064570663763
 20
105.3062859720335
 10
148.7283226564614
 20
105.3168258108781
 10
148.7489501653747
 20
105.3293681114438
 10
148.7682104020375
 20
105.343783682652
 10
148.7859741753709
 20
105.3599325675006
 10
148.8021338261428
 20
105.3777071067573
 10
148.8165386314278
 20
105.3969565774969
 10
148.8290809319935
 20
105.4175840864102
 10
148.8396315367613
 20
105.439438910572
 10
148.848050488729
 20
105.4624133907499
 10
148.8542193627412
 20
105.486367569942
 10
148.8580197336422
 20
105.5111830229928
 10
148.8593116444301
 20
105.5367197929
 10
148.8593116444301
 20
105.5367197929
 10
148.858008967719
 20
105.5622673287305
 10
148.8542193627412
 20
105.587072015858
 10
148.848050488729
 20
105.6110261950501
 10
148.8396207708381
 20
105.6340006752281
 10
148.8290809319935
 20
105.6558447334667
 10
148.8165386314278
 20
105.6764722423799
 10
148.8021230602196
 20
105.6957217131195
 10
148.7859741753709
 20
105.7134962523762
 10
148.7682104020375
 20
105.729655903148
 10
148.7489393994514
 20
105.7440714743562
 10
148.7283226564614
 20
105.7566030089988
 10
148.7064570663763
 20
105.7671536137665
 10
148.6834933521216
 20
105.7755725657343
 10
148.6595391729295
 20
105.7817414397464
 10
148.6347237198788
 20
105.7855418106475
 10
148.6091869499716
 20
105.7868337214354
 10
148.6091869499716
 20
105.7868337214354
 10
148.583639414141
 20
105.7855418106475
 10
148.5588347270136
 20
105.7817306738232
 10
148.5348805478214
 20
105.7755725657343
 10
148.5119168335667
 20
105.7671536137665
 10
148.4900620094049
 20
105.7566030089988
 10
148.4694237345684
 20
105.744060708433
 10
148.4501742638288
 20
105.729655903148
 10
148.4323997245722
 20
105.7134962523762
 10
148.4162508397235
 20
105.6957324790427
 10
148.4018352685154
 20
105.6764722423799
 10
148.3892929679496
 20
105.6558447334667
 10
148.3787423631818
 20
105.6339899093048
 10
148.3703234112141
 20
105.6110261950501
 10
148.3641545372019
 20
105.587072015858
 10
148.3603541663009
 20
105.5622565628073
 10
148.359062255513
 20
105.5367197929
 10
148.359062255513
 20
105.5367197929
 10
148.3603541663009
 20
105.5111830229928
 10
148.3641437712787
 20
105.486367569942
 10
148.3703234112141
 20
105.4624133907499
 10
148.3787531291051
 20
105.4394496764952
 10
148.3892822020264
 20
105.4175840864102
 10
148.4018352685154
 20
105.3969565774969
 10
148.4162508397235
 20
105.3776963408341
 10
148.4323997245722
 20
105.3599325675006
 10
148.4501742638288
 20
105.343783682652
 10
148.4694345004916
 20
105.3293681114438
 10
148.4900620094049
 20
105.3168258108781
 10
148.5119168335667
 20
105.3062752061103
 10
148.5348805478214
 20
105.2978562541426
 10
148.5588347270136
 20
105.2916873801304
 10
148.5836501800643
 20
105.2878870092294
 97
        0
 75
     1
 76
     1
 98
        0
  0
LWPOLYLINE
  5
9B
330
1F
100
AcDbEntity
  8
ISS138金台
  6
Continuous
 62
   250
420
  2367521
370
    13
100
AcDbPolyline
 90
       68
 70
     0
 43
0.0
 10
148.6091869499716
 20
105.2865950984415
 10
148.6347344858021
 20
105.2878977751526
 10
148.6595391729295
 20
105.2916766142072
 10
148.6834825861984
 20
105.2978454882193
 10
148.7064570663763
 20
105.3062859720335
 10
148.7283226564614
 20
105.3168258108781
 10
148.7489501653747
 20
105.3293681114438
 10
148.7682104020375
 20
105.343783682652
 10
148.7859741753709
 20
105.3599325675006
 10
148.8021338261428
 20
105.3777071067573
 10
148.8165386314278
 20
105.3969565774969
 10
148.8290809319935
 20
105.4175840864102
 10
148.8396315367613
 20
105.439438910572
 10
148.848050488729
 20
105.4624133907499
 10
148.8542193627412
 20
105.486367569942
 10
148.8580197336422
 20
105.5111830229928
 10
148.8593116444301
 20
105.5367197929
 10
148.8593116444301
 20
105.5367197929
 10
148.858008967719
 20
105.5622673287305
 10
148.8542193627412
 20
105.587072015858
 10
148.848050488729
 20
105.6110261950501
 10
148.8396207708381
 20
105.6340006752281
 10
148.8290809319935
 20
105.6558447334667
 10
148.8165386314278
 20
105.6764722423799
 10
148.8021230602196
 20
105.6957217131195
 10
148.7859741753709
 20
105.7134962523762
 10
148.7682104020375
 20
105.729655903148
 10
148.7489393994514
 20
105.7440714743562
 10
148.7283226564614
 20
105.7566030089988
 10
148.7064570663763
 20
105.7671536137665
 10
148.6834933521216
 20
105.7755725657343
 10
148.6595391729295
 20
105.7817414397464
 10
148.6347237198788
 20
105.7855418106475
 10
148.6091869499716
 20
105.7868337214354
 10
148.6091869499716
 20
105.7868337214354
 10
148.583639414141
 20
105.7855418106475
 10
148.5588347270136
 20
105.7817306738232
 10
148.5348805478214
 20
105.7755725657343
 10
148.5119168335667
 20
105.7671536137665
 10
148.4900620094049
 20
105.7566030089988
 10
148.4694237345684
 20
105.744060708433
 10
148.4501742638288
 20
105.729655903148
 10
148.4323997245722
 20
105.7134962523762
 10
148.4162508397235
 20
105.6957324790427
 10
148.4018352685154
 20
105.6764722423799
 10
148.3892929679496
 20
105.6558447334667
 10
148.3787423631818
 20
105.6339899093048
 10
148.3703234112141
 20
105.6110261950501
 10
148.3641545372019
 20
105.587072015858
 10
148.3603541663009
 20
105.5622565628073
 10
148.359062255513
 20
105.5367197929
 10
148.359062255513
 20
105.5367197929
 10
148.3603541663009
 20
105.5111830229928
 10
148.3641437712787
 20
105.486367569942
 10
148.3703234112141
 20
105.4624133907499
 10
148.3787531291051
 20
105.4394496764952
 10
148.3892822020264
 20
105.4175840864102
 10
148.4018352685154
 20
105.3969565774969
 10
148.4162508397235
 20
105.3776963408341
 10
148.4323997245722
 20
105.3599325675006
 10
148.4501742638288
 20
105.343783682652
 10
148.4694345004916
 20
105.3293681114438
 10
148.4900620094049
 20
105.3168258108781
 10
148.5119168335667
 20
105.3062752061103
 10
148.5348805478214
 20
105.2978562541426
 10
148.5588347270136
 20
105.2916873801304
 10
148.5836501800643
 20
105.2878870092294
 10
148.6091869499716
 20
105.2865950984415
  0
HATCH
  5
9C
330
1F
100
AcDbEntity
  8
ISS138金台
  6
Continuous
 62
   250
420
  2367521
370
    13
100
AcDbHatch
 10
0.0
 20
0.0
 30
0.0
210
0.0
220
0.0
230
1.0
  2
SOLID
 70
     1
 71
     0
 91
        1
 92
        3
 72
     0
 73
     1
 93
       67
 10
148.6091869499716
 20
108.285206164518
 10
148.6347344858021
 20
108.2865088412291
 10
148.6595391729295
 20
108.2902876802837
 10
148.6834825861984
 20
108.2964565542958
 10
148.7064570663763
 20
108.30489703811
 10
148.7283226564614
 20
108.3154368769546
 10
148.7489501653747
 20
108.3279791775203
 10
148.7682104020375
 20
108.3423947487285
 10
148.7859741753709
 20
108.3585436335771
 10
148.8021338261428
 20
108.3763181728338
 10
148.8165386314278
 20
108.3955676435734
 10
148.8290809319935
 20
108.4161951524867
 10
148.8396315367613
 20
108.4380499766485
 10
148.848050488729
 20
108.4610244568264
 10
148.8542193627412
 20
108.4849786360185
 10
148.8580197336422
 20
108.5097940890692
 10
148.8593116444301
 20
108.5353308589765
 10
148.8593116444301
 20
108.5353308589765
 10
148.858008967719
 20
108.560878394807
 10
148.8542193627412
 20
108.5856830819345
 10
148.848050488729
 20
108.6096372611266
 10
148.8396207708381
 20
108.6326117413046
 10
148.8290809319935
 20
108.6544557995431
 10
148.8165386314278
 20
108.6750833084564
 10
148.8021230602196
 20
108.694332779196
 10
148.7859741753709
 20
108.7121073184527
 10
148.7682104020375
 20
108.7282669692245
 10
148.7489393994514
 20
108.7426825404327
 10
148.7283226564614
 20
108.7552140750752
 10
148.7064570663763
 20
108.765764679843
 10
148.6834933521216
 20
108.7741836318107
 10
148.6595391729295
 20
108.7803525058229
 10
148.6347237198788
 20
108.784152876724
 10
148.6091869499716
 20
108.7854447875118
 10
148.6091869499716
 20
108.7854447875118
 10
148.583639414141
 20
108.784152876724
 10
148.5588347270136
 20
108.7803417398997
 10
148.5348805478214
 20
108.7741836318107
 10
148.5119168335667
 20
108.765764679843
 10
148.4900620094049
 20
108.7552140750752
 10
148.4694237345684
 20
108.7426717745095
 10
148.4501742638288
 20
108.7282669692245
 10
148.4323997245722
 20
108.7121073184527
 10
148.4162508397235
 20
108.6943435451192
 10
148.4018352685154
 20
108.6750833084564
 10
148.3892929679496
 20
108.6544557995431
 10
148.3787423631818
 20
108.6326009753814
 10
148.3703234112141
 20
108.6096372611266
 10
148.3641545372019
 20
108.5856830819345
 10
148.3603541663009
 20
108.5608676288838
 10
148.359062255513
 20
108.5353308589765
 10
148.359062255513
 20
108.5353308589765
 10
148.3603541663009
 20
108.5097940890692
 10
148.3641437712787
 20
108.4849786360185
 10
148.3703234112141
 20
108.4610244568264
 10
148.3787531291051
 20
108.4380392107253
 10
148.3892822020264
 20
108.4161951524867
 10
148.4018352685154
 20
108.3955676435734
 10
148.4162508397235
 20
108.3763074069106
 10
148.4323997245722
 20
108.3585436335771
 10
148.4501742638288
 20
108.3423947487285
 10
148.4694345004916
 20
108.3279791775203
 10
148.4900620094049
 20
108.3154368769546
 10
148.5119168335667
 20
108.3048862721868
 10
148.5348805478214
 20
108.2964673202191
 10
148.5588347270136
 20
108.2902984462069
 10
148.5836501800643
 20
108.2864980753059
 97
        0
 75
     1
 76
     1
 98
        0
  0
LWPOLYLINE
  5
9D
330
1F
100
AcDbEntity
  8
ISS138金台
  6
Continuous
 62
   250
420
  2367521
370
    13
100
AcDbPolyline
 90
       68
 70
     0
 43
0.0
 10
148.6091869499716
 20
108.285206164518
 10
148.6347344858021
 20
108.2865088412291
 10
148.6595391729295
 20
108.2902876802837
 10
148.6834825861984
 20
108.2964565542958
 10
148.7064570663763
 20
108.30489703811
 10
148.7283226564614
 20
108.3154368769546
 10
148.7489501653747
 20
108.3279791775203
 10
148.7682104020375
 20
108.3423947487285
 10
148.7859741753709
 20
108.3585436335771
 10
148.8021338261428
 20
108.3763181728338
 10
148.8165386314278
 20
108.3955676435734
 10
148.8290809319935
 20
108.4161951524867
 10
148.8396315367613
 20
108.4380499766485
 10
148.848050488729
 20
108.4610244568264
 10
148.8542193627412
 20
108.4849786360185
 10
148.8580197336422
 20
108.5097940890692
 10
148.8593116444301
 20
108.5353308589765
 10
148.8593116444301
 20
108.5353308589765
 10
148.858008967719
 20
108.560878394807
 10
148.8542193627412
 20
108.5856830819345
 10
148.848050488729
 20
108.6096372611266
 10
148.8396207708381
 20
108.6326117413046
 10
148.8290809319935
 20
108.6544557995431
 10
148.8165386314278
 20
108.6750833084564
 10
148.8021230602196
 20
108.694332779196
 10
148.7859741753709
 20
108.7121073184527
 10
148.7682104020375
 20
108.7282669692245
 10
148.7489393994514
 20
108.7426825404327
 10
148.7283226564614
 20
108.7552140750752
 10
148.7064570663763
 20
108.765764679843
 10
148.6834933521216
 20
108.7741836318107
 10
148.6595391729295
 20
108.7803525058229
 10
148.6347237198788
 20
108.784152876724
 10
148.6091869499716
 20
108.7854447875118
 10
148.6091869499716
 20
108.7854447875118
 10
148.583639414141
 20
108.784152876724
 10
148.5588347270136
 20
108.7803417398997
 10
148.5348805478214
 20
108.7741836318107
 10
148.5119168335667
 20
108.765764679843
 10
148.4900620094049
 20
108.7552140750752
 10
148.4694237345684
 20
108.7426717745095
 10
148.4501742638288
 20
108.7282669692245
 10
148.4323997245722
 20
108.7121073184527
 10
148.4162508397235
 20
108.6943435451192
 10
148.4018352685154
 20
108.6750833084564
 10
148.3892929679496
 20
108.6544557995431
 10
148.3787423631818
 20
108.6326009753814
 10
148.3703234112141
 20
108.6096372611266
 10
148.3641545372019
 20
108.5856830819345
 10
148.3603541663009
 20
108.5608676288838
 10
148.359062255513
 20
108.5353308589765
 10
148.359062255513
 20
108.5353308589765
 10
148.3603541663009
 20
108.5097940890692
 10
148.3641437712787
 20
108.4849786360185
 10
148.3703234112141
 20
108.4610244568264
 10
148.3787531291051
 20
108.4380392107253
 10
148.3892822020264
 20
108.4161951524867
 10
148.4018352685154
 20
108.3955676435734
 10
148.4162508397235
 20
108.3763074069106
 10
148.4323997245722
 20
108.3585436335771
 10
148.4501742638288
 20
108.3423947487285
 10
148.4694345004916
 20
108.3279791775203
 10
148.4900620094049
 20
108.3154368769546
 10
148.5119168335667
 20
108.3048862721868
 10
148.5348805478214
 20
108.2964673202191
 10
148.5588347270136
 20
108.2902984462069
 10
148.5836501800643
 20
108.2864980753059
 10
148.6091869499716
 20
108.285206164518
  0
HATCH
  5
9E
330
1F
100
AcDbEntity
  8
ISS138金台
  6
Continuous
 62
   254
420
 13816532
370
    25
100
AcDbHatch
 10
0.0
 20
0.0
 30
0.0
210
0.0
220
0.0
230
1.0
  2
SOLID
 70
     1
 71
     0
 91
        1
 92
        3
 72
     0
 73
     1
 93
      305
 10
119.1179534824308
 20
106.6674001144606
 10
118.6601002992029
 20
106.6760236189697
 10
118.2296463906015
 20
106.7010759223316
 10
117.8273346053296
 20
106.7413081774511
 10
117.4539077920902
 20
106.7954715372333
 10
117.1101410973562
 20
106.8623063886601
 10
116.7967989016769
 20
106.940585416483
 10
116.514602521909
 20
107.0290705395301
 10
116.2643378704484
 20
107.1264913788602
 10
116.0467477959982
 20
107.2316206192247
 10
115.8625859131846
 20
107.3432094135286
 10
115.7126058366339
 20
107.4599981487538
 10
115.5975719468956
 20
107.5807595096517
 10
115.518237858596
 20
107.7042338832042
 10
115.4753571863613
 20
107.8291831882396
 10
115.4696835448178
 20
107.9543585776628
 10
115.501981314515
 20
108.0785112043789
 10
115.501981314515
 20
108.0785112043789
 10
115.5653172408913
 20
108.2104368276689
 10
115.6310216703787
 20
108.3118410585949
 10
115.6985886045853
 20
108.3855122712743
 10
115.7675012791959
 20
108.4342173079777
 10
115.8372859935884
 20
108.4607014791295
 10
115.9074152175243
 20
108.4677531588467
 10
115.9773721866885
 20
108.4581499553234
 10
116.0466724345355
 20
108.4346371789838
 10
116.114788430827
 20
108.4000032039451
 10
116.1812249430942
 20
108.3570041065549
 10
116.2454759729452
 20
108.308417495007
 10
116.3070462879114
 20
108.256999445649
 10
116.365397591831
 20
108.2055383325981
 10
116.420056184082
 20
108.1567902322018
 10
116.4704945344258
 20
108.1135219867307
 10
116.5162174103938
 20
108.0785112043789
 10
116.5162174103938
 20
108.0785112043789
 10
116.5702300472508
 20
108.0436080812594
 10
116.6250285965038
 20
108.0130651570491
 10
116.6808606743871
 20
107.9865917518206
 10
116.737973897135
 20
107.9638971856467
 10
116.7966589446749
 20
107.9446692467536
 10
116.857163433241
 20
107.9286495529838
 10
116.9197242131445
 20
107.9155258925635
 10
116.9846211983895
 20
107.9050291174119
 10
117.0521020052102
 20
107.8968470157553
 10
117.1224357816876
 20
107.8906996735896
 10
117.1958701440558
 20
107.8862964109875
 10
117.2726634744726
 20
107.8833465480218
 10
117.3530849210187
 20
107.881548638842
 10
117.4373820999285
 20
107.8806335353672
 10
117.5258133933595
 20
107.8802890258238
 10
117.6186479493926
 20
107.8802459621309
 10
117.6186479493926
 20
108.7399695277782
 10
117.5932296046408
 20
108.9420136090808
 10
117.5200859221998
 20
109.1267676176722
 10
117.4039108445989
 20
109.2948236793301
 10
117.2493875484441
 20
109.4467739198323
 10
117.0612207421881
 20
109.5831889331102
 10
116.8441043683601
 20
109.7046823767879
 10
116.6027323694895
 20
109.8118248447968
 10
116.3417771562591
 20
109.9051976969915
 10
116.0659326711983
 20
109.9853822932265
 10
115.7799036227597
 20
110.0529815252028
 10
115.488362421626
 20
110.108576752775
 10
115.1960245421732
 20
110.1527493357975
 10
114.9075731610072
 20
110.1860806341251
 10
114.6276806888111
 20
110.2091627735354
 10
114.3610625999605
 20
110.2225878798062
 10
114.1123913051383
 20
110.2269265468688
 10
114.1123913051383
 20
110.2269265468688
 10
113.6523526394942
 20
110.21827074459
 10
113.2183352103028
 20
110.1980846385292
 10
112.8082288966107
 20
110.1665081856885
 10
112.4199558752338
 20
110.1237028749165
 10
112.0514383229885
 20
110.0697763654453
 10
111.7005984166907
 20
110.0049009120469
 10
111.3653152694638
 20
109.9292272376463
 10
111.0435325899703
 20
109.8428845333223
 10
110.7331617891032
 20
109.7460235220003
 10
110.4321035118321
 20
109.6387733947591
 10
110.1382799349732
 20
109.5213064063703
 10
109.8496024694193
 20
109.3937409819894
 10
109.5639932919868
 20
109.2562278445419
 10
109.2793530476451
 20
109.1089177169528
 10
108.9936039132105
 20
108.9519505562243
 10
108.7046572995759
 20
108.7854770852816
 10
108.7046572995759
 20
108.7854770852816
 10
108.5751540090132
 20
108.7097818790345
 10
108.4221917717271
 20
108.6211245012156
 10
108.2495171290025
 20
108.5214966476229
 10
108.0609627495101
 20
108.4129761414402
 10
107.8603074723045
 20
108.2975654443888
 10
107.6513624342099
 20
108.1772993159595
 10
107.4379280061273
 20
108.0542232815666
 10
107.2237830271115
 20
107.9303505688545
 10
107.0127493999098
 20
107.8077051713909
 10
106.8086167295001
 20
107.6883433805132
 10
106.6151746208602
 20
107.5742784238658
 10
106.4362234448911
 20
107.4675558268629
 10
106.2755743384171
 20
107.370188817149
 10
106.1370061404927
 20
107.2842229201382
 10
106.0243407538655
 20
107.2116821293983
 10
105.9413570175901
 20
107.1545904384968
 10
105.9413570175901
 20
107.1545904384968
 10
105.7127964673661
 20
106.9895380694207
 10
105.4770442804228
 20
106.822278686082
 10
105.2356938133986
 20
106.6538135193413
 10
104.9903061251623
 20
106.4851868637521
 10
104.7425176360452
 20
106.3174753116376
 10
104.4938786389927
 20
106.1517016257049
 10
104.24597172472
 20
105.9888993345845
 10
104.000411781712
 20
105.8301234987529
 10
103.7587814006838
 20
105.6764184127638
 10
103.5226524064274
 20
105.5288068393242
 10
103.2936289215043
 20
105.388343838911
 10
103.0732827707066
 20
105.2560844720008
 10
102.8632180765958
 20
105.1330515013008
 10
102.6650174298872
 20
105.0202892213646
 10
102.480274187219
 20
104.9188526926688
 10
102.3105601733833
 20
104.8297754438439
 10
102.3105601733833
 20
104.8297754438439
 10
102.0961675781331
 20
104.7382543304452
 10
101.8934021799739
 20
104.6858888798427
 10
101.7036420170795
 20
104.669180166986
 10
101.5283189572397
 20
104.684650798671
 10
101.3688218045516
 20
104.7287910839239
 10
101.2265716608817
 20
104.7981451613871
 10
101.1029357984808
 20
104.88921410601
 10
100.9993353192153
 20
104.9984989927422
 10
100.9171697931055
 20
105.1225331943028
 10
100.8578387901717
 20
105.2578177856412
 10
100.8227526463573
 20
105.4008753735535
 10
100.8133001657592
 20
105.5482285648355
 10
100.8309024502442
 20
105.6963676685134
 10
100.876937537986
 20
105.8418152913833
 10
100.9528265308513
 20
105.981094040241
 10
101.0599689988602
 20
106.1107157559592
 10
101.0599689988602
 20
106.1107157559592
 10
101.4333096847137
 20
106.4499499970124
 10
101.9083452814205
 20
106.824313445573
 10
102.4726411476473
 20
107.2276587594752
 10
103.1137518761372
 20
107.6537955328604
 10
103.819242825557
 20
108.0965764235629
 10
104.5767008864196
 20
108.5498540894171
 10
105.3736914173917
 20
109.0074488904874
 10
106.1977797771397
 20
109.463202718685
 10
107.036520558407
 20
109.9109574659208
 10
107.8775006517066
 20
110.3445657900294
 10
108.7082854157052
 20
110.7578372851519
 10
109.516429443146
 20
111.1446246091226
 10
110.2895088586188
 20
111.4987696538527
 10
111.0150997867135
 20
111.8141143112532
 10
111.6807675860966
 20
112.084489707312
 10
112.2740668495114
 20
112.3037269680167
 10
112.2740668495114
 20
112.3037269680167
 10
112.3986178153872
 20
112.3457356004696
 10
112.5293591871216
 20
112.3872705323002
 10
112.6664847513328
 20
112.4281810405834
 10
112.8101236990996
 20
112.4681764453918
 10
112.9604698170402
 20
112.5070629601072
 10
113.117684594003
 20
112.5446037344187
 10
113.2819402847599
 20
112.5805619180149
 10
113.4533983781593
 20
112.6147114265081
 10
113.632241894896
 20
112.6468261755104
 10
113.8186215578955
 20
112.6766800806339
 10
114.0127096219294
 20
112.7040362915674
 10
114.2146783417694
 20
112.7286902557696
 10
114.4246999721872
 20
112.7503835910829
 10
114.6429467679546
 20
112.7689009790427
 10
114.8695694519968
 20
112.784016335261
 10
115.1047510450088
 20
112.79550357535
 10
115.1047510450088
 20
112.79550357535
 10
116.0281981102687
 20
112.8309988242472
 10
116.9604194029631
 20
112.8621015764656
 10
117.8978621684251
 20
112.8859696282719
 10
118.8369090564487
 20
112.8996961803932
 10
119.7739750145977
 20
112.9003959654033
 10
120.7054749904354
 20
112.8852160136456
 10
121.6277916337559
 20
112.8512387599242
 10
122.5373398921228
 20
112.7955897027358
 10
123.4305347130996
 20
112.7153943405776
 10
124.3037587464803
 20
112.6077781719464
 10
125.1534269398285
 20
112.4698451634928
 10
125.9759542407078
 20
112.2987100477904
 10
126.7677448307586
 20
112.0914983233363
 10
127.525192125698
 20
111.8453354886272
 10
128.2447110730896
 20
111.5573255103138
 10
128.9227058545738
 20
111.2245831209697
 10
128.9227058545738
 20
111.2245831209697
 10
129.0979320211045
 20
111.12926163667
 10
129.2763341349888
 20
111.0309472257116
 10
129.4560173937377
 20
110.929564526632
 10
129.6351085267088
 20
110.8250274120453
 10
129.8117342632597
 20
110.7172497545657
 10
129.9840320986712
 20
110.6061669586537
 10
130.1501287623008
 20
110.4916605991538
 10
130.3081509835061
 20
110.3736768464498
 10
130.4562254916447
 20
110.2521295731559
 10
130.592479016074
 20
110.1269111200397
 10
130.7150382861518
 20
109.9979676574852
 10
130.8220515630819
 20
109.8651915262599
 10
130.9116132784523
 20
109.7285073649012
 10
130.9818824593902
 20
109.5878398119466
 10
131.0309643034068
 20
109.4430919740868
 10
131.057007071706
 20
109.2941884898594
 10
131.057007071706
 20
109.2941884898594
 10
131.0645755157384
 20
109.1006710197568
 10
131.0507843680777
 20
108.9272535283292
 10
131.0168394121259
 20
108.7729993802552
 10
130.9639679631316
 20
108.6370473016763
 10
130.8933542726502
 20
108.5184606572713
 10
130.8062256559303
 20
108.4163566413352
 10
130.7038094282204
 20
108.3298201503931
 10
130.587289841076
 20
108.2579576128167
 10
130.4578834438224
 20
108.1998431592082
 10
130.3168067857849
 20
108.1545832179391
 10
130.1652764162888
 20
108.1212842173813
 10
130.004498118736
 20
108.0990418199831
 10
129.8356776765286
 20
108.0869516881931
 10
129.660042404915
 20
108.0840879526133
 10
129.478776555451
 20
108.0895785734618
 10
129.2931182093081
 20
108.1024976813408
 10
129.2931182093081
 20
108.1024976813408
 10
129.0249605934352
 20
108.1424930861491
 10
128.7545851973765
 20
108.213268265479
 10
128.4809154288087
 20
108.3108936573505
 10
128.2028423976388
 20
108.4314181679373
 10
127.9192679796971
 20
108.5708799374899
 10
127.6291155826604
 20
108.7253494040285
 10
127.3312655505126
 20
108.8908862396501
 10
127.0246305250071
 20
109.0635070527585
 10
126.7081123819743
 20
109.2393038132205
 10
126.3806129972444
 20
109.4143146612866
 10
126.0410127148013
 20
109.5845992690536
 10
125.6882564741682
 20
109.7462065426953
 10
125.3212246193289
 20
109.8951853883854
 10
124.9388190261137
 20
110.0275954782208
 10
124.5399523362761
 20
110.1394964842984
 10
124.1235156597233
 20
110.2269265468688
 10
124.1235156597233
 20
110.2269265468688
 10
123.8748443649011
 20
110.2225878798062
 10
123.6082262760505
 20
110.2091520076121
 10
123.3283338038543
 20
110.1860806341251
 10
123.0398716567652
 20
110.1527493357975
 10
122.7475337773123
 20
110.108576752775
 10
122.4560141080252
 20
110.0529815252028
 10
122.1699742936633
 20
109.9853930591497
 10
121.8941405745257
 20
109.9051869310683
 10
121.6331853612953
 20
109.8118248447968
 10
121.3918025965015
 20
109.7046823767879
 10
121.1746754567503
 20
109.5831889331102
 10
120.9865194164174
 20
109.4467631539091
 10
120.8320068861859
 20
109.2948236793301
 10
120.715831808585
 20
109.1267568517489
 10
120.642688126144
 20
108.9420028431575
 10
120.617259015469
 20
108.7399695277782
 10
120.617259015469
 20
107.8802459621309
 10
120.7100828055789
 20
107.880299791747
 10
120.7985248649331
 20
107.880622769444
 10
120.8828220438429
 20
107.8815594047652
 10
120.963243490389
 20
107.8833465480218
 10
121.0400368208058
 20
107.8862964109875
 10
121.113471183174
 20
107.8906996735896
 10
121.1837941937281
 20
107.8968577816785
 10
121.2512857664721
 20
107.9050291174119
 10
121.3161827517171
 20
107.9155366584867
 10
121.3787542975438
 20
107.9286495529838
 10
121.4392372542635
 20
107.9446692467536
 10
121.4979223018033
 20
107.9638864197235
 10
121.5550462904745
 20
107.9865917518206
 10
121.6108783683578
 20
108.0130651570491
 10
121.6656769176108
 20
108.0436080812594
 10
121.7196895544678
 20
108.0785112043789
 10
121.7196895544678
 20
108.0785112043789
 10
121.7652186438176
 20
108.1135219867307
 10
121.8150433365372
 20
108.1567902322018
 10
121.8687329956972
 20
108.2055383325981
 10
121.9258785162149
 20
108.2570102115723
 10
121.9860923248537
 20
108.308417495007
 10
122.0489760824542
 20
108.3570041065549
 10
122.1140776202406
 20
108.4000032039451
 10
122.1810416627462
 20
108.4346371789838
 10
122.2494160411952
 20
108.4581499553234
 10
122.3188239482746
 20
108.4677639247699
 10
122.3888347470549
 20
108.4607014791295
 10
122.4590716302231
 20
108.4342065420545
 10
122.5290931949267
 20
108.3855122712743
 10
122.5985226338526
 20
108.3118410585949
 10
122.6669293100713
 20
108.2104368276689
 10
122.7339256503466
 20
108.0785112043789
 10
122.7339256503466
 20
108.0785112043789
 10
122.7687749438499
 20
107.9554674677557
 10
122.7650068707185
 20
107.8311102884982
 10
122.723428875195
 20
107.7067208114709
 10
122.6448699333681
 20
107.5836017133851
 10
122.53016978725
 20
107.4629695435659
 10
122.3801574129296
 20
107.3461485105711
 10
122.1956079568796
 20
107.2344089933419
 10
121.9773934588819
 20
107.1290106048966
 10
121.7263213631789
 20
107.0312344900998
 10
121.4432098799362
 20
106.9423617938163
 10
121.1288879852428
 20
106.8636521290642
 10
120.7841846551876
 20
106.7964081725545
 10
120.4099073340128
 20
106.7418787713824
 10
120.0068957637308
 20
106.7013558363356
 10
119.5759681545072
 20
106.6760989804324
 97
        0
 75
     1
 76
     1
 98
        0
  0
LWPOLYLINE
  5
9F
330
1F
100
AcDbEntity
  8
ISS138金台
  6
Continuous
 62
   250
420
  2367521
370
    25
100
AcDbPolyline
 90
      306
 70
     0
 43
0.0
 10
119.1179534824308
 20
106.6674001144606
 10
118.6601002992029
 20
106.6760236189697
 10
118.2296463906015
 20
106.7010759223316
 10
117.8273346053296
 20
106.7413081774511
 10
117.4539077920902
 20
106.7954715372333
 10
117.1101410973562
 20
106.8623063886601
 10
116.7967989016769
 20
106.940585416483
 10
116.514602521909
 20
107.0290705395301
 10
116.2643378704484
 20
107.1264913788602
 10
116.0467477959982
 20
107.2316206192247
 10
115.8625859131846
 20
107.3432094135286
 10
115.7126058366339
 20
107.4599981487538
 10
115.5975719468956
 20
107.5807595096517
 10
115.518237858596
 20
107.7042338832042
 10
115.4753571863613
 20
107.8291831882396
 10
115.4696835448178
 20
107.9543585776628
 10
115.501981314515
 20
108.0785112043789
 10
115.501981314515
 20
108.0785112043789
 10
115.5653172408913
 20
108.2104368276689
 10
115.6310216703787
 20
108.3118410585949
 10
115.6985886045853
 20
108.3855122712743
 10
115.7675012791959
 20
108.4342173079777
 10
115.8372859935884
 20
108.4607014791295
 10
115.9074152175243
 20
108.4677531588467
 10
115.9773721866885
 20
108.4581499553234
 10
116.0466724345355
 20
108.4346371789838
 10
116.114788430827
 20
108.4000032039451
 10
116.1812249430942
 20
108.3570041065549
 10
116.2454759729452
 20
108.308417495007
 10
116.3070462879114
 20
108.256999445649
 10
116.365397591831
 20
108.2055383325981
 10
116.420056184082
 20
108.1567902322018
 10
116.4704945344258
 20
108.1135219867307
 10
116.5162174103938
 20
108.0785112043789
 10
116.5162174103938
 20
108.0785112043789
 10
116.5702300472508
 20
108.0436080812594
 10
116.6250285965038
 20
108.0130651570491
 10
116.6808606743871
 20
107.9865917518206
 10
116.737973897135
 20
107.9638971856467
 10
116.7966589446749
 20
107.9446692467536
 10
116.857163433241
 20
107.9286495529838
 10
116.9197242131445
 20
107.9155258925635
 10
116.9846211983895
 20
107.9050291174119
 10
117.0521020052102
 20
107.8968470157553
 10
117.1224357816876
 20
107.8906996735896
 10
117.1958701440558
 20
107.8862964109875
 10
117.2726634744726
 20
107.8833465480218
 10
117.3530849210187
 20
107.881548638842
 10
117.4373820999285
 20
107.8806335353672
 10
117.5258133933595
 20
107.8802890258238
 10
117.6186479493926
 20
107.8802459621309
 10
117.6186479493926
 20
108.7399695277782
 10
117.5932296046408
 20
108.9420136090808
 10
117.5200859221998
 20
109.1267676176722
 10
117.4039108445989
 20
109.2948236793301
 10
117.2493875484441
 20
109.4467739198323
 10
117.0612207421881
 20
109.5831889331102
 10
116.8441043683601
 20
109.7046823767879
 10
116.6027323694895
 20
109.8118248447968
 10
116.3417771562591
 20
109.9051976969915
 10
116.0659326711983
 20
109.9853822932265
 10
115.7799036227597
 20
110.0529815252028
 10
115.488362421626
 20
110.108576752775
 10
115.1960245421732
 20
110.1527493357975
 10
114.9075731610072
 20
110.1860806341251
 10
114.6276806888111
 20
110.2091627735354
 10
114.3610625999605
 20
110.2225878798062
 10
114.1123913051383
 20
110.2269265468688
 10
114.1123913051383
 20
110.2269265468688
 10
113.6523526394942
 20
110.21827074459
 10
113.2183352103028
 20
110.1980846385292
 10
112.8082288966107
 20
110.1665081856885
 10
112.4199558752338
 20
110.1237028749165
 10
112.0514383229885
 20
110.0697763654453
 10
111.7005984166907
 20
110.0049009120469
 10
111.3653152694638
 20
109.9292272376463
 10
111.0435325899703
 20
109.8428845333223
 10
110.7331617891032
 20
109.7460235220003
 10
110.4321035118321
 20
109.6387733947591
 10
110.1382799349732
 20
109.5213064063703
 10
109.8496024694193
 20
109.3937409819894
 10
109.5639932919868
 20
109.2562278445419
 10
109.2793530476451
 20
109.1089177169528
 10
108.9936039132105
 20
108.9519505562243
 10
108.7046572995759
 20
108.7854770852816
 10
108.7046572995759
 20
108.7854770852816
 10
108.5751540090132
 20
108.7097818790345
 10
108.4221917717271
 20
108.6211245012156
 10
108.2495171290025
 20
108.5214966476229
 10
108.0609627495101
 20
108.4129761414402
 10
107.8603074723045
 20
108.2975654443888
 10
107.6513624342099
 20
108.1772993159595
 10
107.4379280061273
 20
108.0542232815666
 10
107.2237830271115
 20
107.9303505688545
 10
107.0127493999098
 20
107.8077051713909
 10
106.8086167295001
 20
107.6883433805132
 10
106.6151746208602
 20
107.5742784238658
 10
106.4362234448911
 20
107.4675558268629
 10
106.2755743384171
 20
107.370188817149
 10
106.1370061404927
 20
107.2842229201382
 10
106.0243407538655
 20
107.2116821293983
 10
105.9413570175901
 20
107.1545904384968
 10
105.9413570175901
 20
107.1545904384968
 10
105.7127964673661
 20
106.9895380694207
 10
105.4770442804228
 20
106.822278686082
 10
105.2356938133986
 20
106.6538135193413
 10
104.9903061251623
 20
106.4851868637521
 10
104.7425176360452
 20
106.3174753116376
 10
104.4938786389927
 20
106.1517016257049
 10
104.24597172472
 20
105.9888993345845
 10
104.000411781712
 20
105.8301234987529
 10
103.7587814006838
 20
105.6764184127638
 10
103.5226524064274
 20
105.5288068393242
 10
103.2936289215043
 20
105.388343838911
 10
103.0732827707066
 20
105.2560844720008
 10
102.8632180765958
 20
105.1330515013008
 10
102.6650174298872
 20
105.0202892213646
 10
102.480274187219
 20
104.9188526926688
 10
102.3105601733833
 20
104.8297754438439
 10
102.3105601733833
 20
104.8297754438439
 10
102.0961675781331
 20
104.7382543304452
 10
101.8934021799739
 20
104.6858888798427
 10
101.7036420170795
 20
104.669180166986
 10
101.5283189572397
 20
104.684650798671
 10
101.3688218045516
 20
104.7287910839239
 10
101.2265716608817
 20
104.7981451613871
 10
101.1029357984808
 20
104.88921410601
 10
100.9993353192153
 20
104.9984989927422
 10
100.9171697931055
 20
105.1225331943028
 10
100.8578387901717
 20
105.2578177856412
 10
100.8227526463573
 20
105.4008753735535
 10
100.8133001657592
 20
105.5482285648355
 10
100.8309024502442
 20
105.6963676685134
 10
100.876937537986
 20
105.8418152913833
 10
100.9528265308513
 20
105.981094040241
 10
101.0599689988602
 20
106.1107157559592
 10
101.0599689988602
 20
106.1107157559592
 10
101.4333096847137
 20
106.4499499970124
 10
101.9083452814205
 20
106.824313445573
 10
102.4726411476473
 20
107.2276587594752
 10
103.1137518761372
 20
107.6537955328604
 10
103.819242825557
 20
108.0965764235629
 10
104.5767008864196
 20
108.5498540894171
 10
105.3736914173917
 20
109.0074488904874
 10
106.1977797771397
 20
109.463202718685
 10
107.036520558407
 20
109.9109574659208
 10
107.8775006517066
 20
110.3445657900294
 10
108.7082854157052
 20
110.7578372851519
 10
109.516429443146
 20
111.1446246091226
 10
110.2895088586188
 20
111.4987696538527
 10
111.0150997867135
 20
111.8141143112532
 10
111.6807675860966
 20
112.084489707312
 10
112.2740668495114
 20
112.3037269680167
 10
112.2740668495114
 20
112.3037269680167
 10
112.3986178153872
 20
112.3457356004696
 10
112.5293591871216
 20
112.3872705323002
 10
112.6664847513328
 20
112.4281810405834
 10
112.8101236990996
 20
112.4681764453918
 10
112.9604698170402
 20
112.5070629601072
 10
113.117684594003
 20
112.5446037344187
 10
113.2819402847599
 20
112.5805619180149
 10
113.4533983781593
 20
112.6147114265081
 10
113.632241894896
 20
112.6468261755104
 10
113.8186215578955
 20
112.6766800806339
 10
114.0127096219294
 20
112.7040362915674
 10
114.2146783417694
 20
112.7286902557696
 10
114.4246999721872
 20
112.7503835910829
 10
114.6429467679546
 20
112.7689009790427
 10
114.8695694519968
 20
112.784016335261
 10
115.1047510450088
 20
112.79550357535
 10
115.1047510450088
 20
112.79550357535
 10
116.0281981102687
 20
112.8309988242472
 10
116.9604194029631
 20
112.8621015764656
 10
117.8978621684251
 20
112.8859696282719
 10
118.8369090564487
 20
112.8996961803932
 10
119.7739750145977
 20
112.9003959654033
 10
120.7054749904354
 20
112.8852160136456
 10
121.6277916337559
 20
112.8512387599242
 10
122.5373398921228
 20
112.7955897027358
 10
123.4305347130996
 20
112.7153943405776
 10
124.3037587464803
 20
112.6077781719464
 10
125.1534269398285
 20
112.4698451634928
 10
125.9759542407078
 20
112.2987100477904
 10
126.7677448307586
 20
112.0914983233363
 10
127.525192125698
 20
111.8453354886272
 10
128.2447110730896
 20
111.5573255103138
 10
128.9227058545738
 20
111.2245831209697
 10
128.9227058545738
 20
111.2245831209697
 10
129.0979320211045
 20
111.12926163667
 10
129.2763341349888
 20
111.0309472257116
 10
129.4560173937377
 20
110.929564526632
 10
129.6351085267088
 20
110.8250274120453
 10
129.8117342632597
 20
110.7172497545657
 10
129.9840320986712
 20
110.6061669586537
 10
130.1501287623008
 20
110.4916605991538
 10
130.3081509835061
 20
110.3736768464498
 10
130.4562254916447
 20
110.2521295731559
 10
130.592479016074
 20
110.1269111200397
 10
130.7150382861518
 20
109.9979676574852
 10
130.8220515630819
 20
109.8651915262599
 10
130.9116132784523
 20
109.7285073649012
 10
130.9818824593902
 20
109.5878398119466
 10
131.0309643034068
 20
109.4430919740868
 10
131.057007071706
 20
109.2941884898594
 10
131.057007071706
 20
109.2941884898594
 10
131.0645755157384
 20
109.1006710197568
 10
131.0507843680777
 20
108.9272535283292
 10
131.0168394121259
 20
108.7729993802552
 10
130.9639679631316
 20
108.6370473016763
 10
130.8933542726502
 20
108.5184606572713
 10
130.8062256559303
 20
108.4163566413352
 10
130.7038094282204
 20
108.3298201503931
 10
130.587289841076
 20
108.2579576128167
 10
130.4578834438224
 20
108.1998431592082
 10
130.3168067857849
 20
108.1545832179391
 10
130.1652764162888
 20
108.1212842173813
 10
130.004498118736
 20
108.0990418199831
 10
129.8356776765286
 20
108.0869516881931
 10
129.660042404915
 20
108.0840879526133
 10
129.478776555451
 20
108.0895785734618
 10
129.2931182093081
 20
108.1024976813408
 10
129.2931182093081
 20
108.1024976813408
 10
129.0249605934352
 20
108.1424930861491
 10
128.7545851973765
 20
108.213268265479
 10
128.4809154288087
 20
108.3108936573505
 10
128.2028423976388
 20
108.4314181679373
 10
127.9192679796971
 20
108.5708799374899
 10
127.6291155826604
 20
108.7253494040285
 10
127.3312655505126
 20
108.8908862396501
 10
127.0246305250071
 20
109.0635070527585
 10
126.7081123819743
 20
109.2393038132205
 10
126.3806129972444
 20
109.4143146612866
 10
126.0410127148013
 20
109.5845992690536
 10
125.6882564741682
 20
109.7462065426953
 10
125.3212246193289
 20
109.8951853883854
 10
124.9388190261137
 20
110.0275954782208
 10
124.5399523362761
 20
110.1394964842984
 10
124.1235156597233
 20
110.2269265468688
 10
124.1235156597233
 20
110.2269265468688
 10
123.8748443649011
 20
110.2225878798062
 10
123.6082262760505
 20
110.2091520076121
 10
123.3283338038543
 20
110.1860806341251
 10
123.0398716567652
 20
110.1527493357975
 10
122.7475337773123
 20
110.108576752775
 10
122.4560141080252
 20
110.0529815252028
 10
122.1699742936633
 20
109.9853930591497
 10
121.8941405745257
 20
109.9051869310683
 10
121.6331853612953
 20
109.8118248447968
 10
121.3918025965015
 20
109.7046823767879
 10
121.1746754567503
 20
109.5831889331102
 10
120.9865194164174
 20
109.4467631539091
 10
120.8320068861859
 20
109.2948236793301
 10
120.715831808585
 20
109.1267568517489
 10
120.642688126144
 20
108.9420028431575
 10
120.617259015469
 20
108.7399695277782
 10
120.617259015469
 20
107.8802459621309
 10
120.7100828055789
 20
107.880299791747
 10
120.7985248649331
 20
107.880622769444
 10
120.8828220438429
 20
107.8815594047652
 10
120.963243490389
 20
107.8833465480218
 10
121.0400368208058
 20
107.8862964109875
 10
121.113471183174
 20
107.8906996735896
 10
121.1837941937281
 20
107.8968577816785
 10
121.2512857664721
 20
107.9050291174119
 10
121.3161827517171
 20
107.9155366584867
 10
121.3787542975438
 20
107.9286495529838
 10
121.4392372542635
 20
107.9446692467536
 10
121.4979223018033
 20
107.9638864197235
 10
121.5550462904745
 20
107.9865917518206
 10
121.6108783683578
 20
108.0130651570491
 10
121.6656769176108
 20
108.0436080812594
 10
121.7196895544678
 20
108.0785112043789
 10
121.7196895544678
 20
108.0785112043789
 10
121.7652186438176
 20
108.1135219867307
 10
121.8150433365372
 20
108.1567902322018
 10
121.8687329956972
 20
108.2055383325981
 10
121.9258785162149
 20
108.2570102115723
 10
121.9860923248537
 20
108.308417495007
 10
122.0489760824542
 20
108.3570041065549
 10
122.1140776202406
 20
108.4000032039451
 10
122.1810416627462
 20
108.4346371789838
 10
122.2494160411952
 20
108.4581499553234
 10
122.3188239482746
 20
108.4677639247699
 10
122.3888347470549
 20
108.4607014791295
 10
122.4590716302231
 20
108.4342065420545
 10
122.5290931949267
 20
108.3855122712743
 10
122.5985226338526
 20
108.3118410585949
 10
122.6669293100713
 20
108.2104368276689
 10
122.7339256503466
 20
108.0785112043789
 10
122.7339256503466
 20
108.0785112043789
 10
122.7687749438499
 20
107.9554674677557
 10
122.7650068707185
 20
107.8311102884982
 10
122.723428875195
 20
107.7067208114709
 10
122.6448699333681
 20
107.5836017133851
 10
122.53016978725
 20
107.4629695435659
 10
122.3801574129296
 20
107.3461485105711
 10
122.1956079568796
 20
107.2344089933419
 10
121.9773934588819
 20
107.1290106048966
 10
121.7263213631789
 20
107.0312344900998
 10
121.4432098799362
 20
106.9423617938163
 10
121.1288879852428
 20
106.8636521290642
 10
120.7841846551876
 20
106.7964081725545
 10
120.4099073340128
 20
106.7418787713824
 10
120.0068957637308
 20
106.7013558363356
 10
119.5759681545072
 20
106.6760989804324
 10
119.1179534824308
 20
106.6674001144606
  0
ENDSEC
  0
SECTION
  2
OBJECTS
  0
DICTIONARY
  5
C
330
0
100
AcDbDictionary
281
     1
  3
ACAD_DETAILVIEWSTYLE
350
A7
  3
ACAD_GROUP
350
D
  3
ACAD_LAYOUT
350
1A
  3
ACAD_MATERIAL
350
43
  3
ACAD_MLEADERSTYLE
350
5B
  3
ACAD_MLINESTYLE
350
17
  3
ACAD_PLOTSETTINGS
350
19
  3
ACAD_PLOTSTYLENAME
350
E
  3
ACAD_SCALELIST
350
47
  3
ACAD_SECTIONVIEWSTYLE
350
A8
  3
ACAD_TABLESTYLE
350
59
  3
ACAD_VISUALSTYLE
350
2A
  3
ACDB_RECOMPOSE_DATA
350
A4
  3
AcDbVariableDictionary
350
A0
  0
SUN
  5
5D
330
29
100
AcDbSun
 90
        1
290
     0
 63
     7
421
 16777215
 40
1.0
291
     1
 91
  2455826
 92
 54000000
292
     0
 70
     2
 71
   256
280
     1
  0
DICTIONARY
  5
A7
102
{ACAD_REACTORS
330
C
102
}
330
C
100
AcDbDictionary
281
     1
  0
DICTIONARY
  5
D
102
{ACAD_REACTORS
330
C
102
}
330
C
100
AcDbDictionary
281
     1
  0
DICTIONARY
  5
1A
102
{ACAD_REACTORS
330
C
102
}
330
C
100
AcDbDictionary
281
     1
  3
Layout1
350
1E
  3
Layout2
350
26
  3
Model
350
22
  0
DICTIONARY
  5
43
102
{ACAD_REACTORS
330
C
102
}
330
C
100
AcDbDictionary
281
     1
  3
ByBlock
350
45
  3
ByLayer
350
44
  3
Global
350
46
  0
DICTIONARY
  5
5B
102
{ACAD_REACTORS
330
C
102
}
330
C
100
AcDbDictionary
281
     1
  3
Standard
350
5C
  0
DICTIONARY
  5
17
102
{ACAD_REACTORS
330
C
102
}
330
C
100
AcDbDictionary
281
     1
  3
Standard
350
18
  0
DICTIONARY
  5
19
102
{ACAD_REACTORS
330
C
102
}
330
C
100
AcDbDictionary
281
     1
  0
ACDBDICTIONARYWDFLT
  5
E
102
{ACAD_REACTORS
330
C
102
}
330
C
100
AcDbDictionary
281
     1
  3
Normal
350
F
100
AcDbDictionaryWithDefault
340
F
  0
DICTIONARY
  5
47
102
{ACAD_REACTORS
330
C
102
}
330
C
100
AcDbDictionary
281
     1
  3
A0
350
48
  3
A1
350
49
  3
A2
350
4A
  3
A3
350
4B
  3
A4
350
4C
  3
A5
350
4D
  3
A6
350
4E
  3
A7
350
4F
  3
A8
350
50
  3
A9
350
51
  3
B0
350
52
  3
B1
350
53
  3
B2
350
54
  3
B3
350
55
  3
B4
350
56
  3
B5
350
57
  3
B6
350
58
  0
DICTIONARY
  5
A8
102
{ACAD_REACTORS
330
C
102
}
330
C
100
AcDbDictionary
281
     1
  0
DICTIONARY
  5
59
102
{ACAD_REACTORS
330
C
102
}
330
C
100
AcDbDictionary
281
     1
  3
Standard
350
5A
  0
DICTIONARY
  5
2A
102
{ACAD_REACTORS
330
C
102
}
330
C
100
AcDbDictionary
281
     1
  3
2dWireframe
350
2F
  3
Basic
350
32
  3
Brighten
350
36
  3
ColorChange
350
3A
  3
Conceptual
350
34
  3
Dim
350
35
  3
EdgeColorOff
350
3D
  3
Facepattern
350
39
  3
Flat
350
2B
  3
FlatWithEdges
350
2C
  3
Gouraud
350
2D
  3
GouraudWithEdges
350
2E
  3
Hidden
350
31
  3
JitterOff
350
3B
  3
Linepattern
350
38
  3
OverhangOff
350
3C
  3
Realistic
350
33
  3
Shaded
350
42
  3
Shaded with edges
350
41
  3
Shades of Gray
350
3E
  3
Sketchy
350
3F
  3
Thicken
350
37
  3
Wireframe
350
30
  3
X-Ray
350
40
  0
XRECORD
  5
A4
102
{ACAD_REACTORS
330
C
102
}
330
C
100
AcDbXrecord
280
     1
 90
        1
330
5A
  0
DICTIONARY
  5
A0
102
{ACAD_REACTORS
330
C
102
}
330
C
100
AcDbDictionary
281
     1
  3
CANNOSCALE
350
A1
  3
CENTEREXE
350
A9
  3
CENTERLTYPEFILE
350
AA
  3
CMLEADERSTYLE
350
A6
  3
CTABLESTYLE
350
A5
  0
LAYOUT
  5
1E
102
{ACAD_REACTORS
330
1A
102
}
330
1A
100
AcDbPlotSettings
  1

  2
none_device
  4

  6

 40
0.0
 41
0.0
 42
0.0
 43
0.0
 44
0.0
 45
0.0
 46
0.0
 47
0.0
 48
0.0
 49
0.0
140
0.0
141
0.0
142
1.0
143
1.0
 70
   688
 72
     1
 73
     0
 74
     5
  7

 75
    16
 76
     0
 77
     5
 78
   300
147
1.0
148
0.0
149
0.0
100
AcDbLayout
  1
Layout1
 70
     1
 71
     1
 10
0.0
 20
0.0
 11
420.0
 21
297.0
 12
0.0
 22
0.0
 32
0.0
 14
1.000000000000000E+20
 24
1.000000000000000E+20
 34
1.000000000000000E+20
 15
-1.000000000000000E+20
 25
-1.000000000000000E+20
 35
-1.000000000000000E+20
146
0.0
 13
0.0
 23
0.0
 33
0.0
 16
1.0
 26
0.0
 36
0.0
 17
0.0
 27
1.0
 37
0.0
 76
     0
330
1B
  0
LAYOUT
  5
26
102
{ACAD_REACTORS
330
1A
102
}
330
1A
100
AcDbPlotSettings
  1

  2
none_device
  4

  6

 40
0.0
 41
0.0
 42
0.0
 43
0.0
 44
0.0
 45
0.0
 46
0.0
 47
0.0
 48
0.0
 49
0.0
140
0.0
141
0.0
142
1.0
143
1.0
 70
   688
 72
     1
 73
     0
 74
     5
  7

 75
    16
 76
     0
 77
     5
 78
   300
147
1.0
148
0.0
149
0.0
100
AcDbLayout
  1
Layout2
 70
     1
 71
     2
 10
0.0
 20
0.0
 11
0.0
 21
0.0
 12
0.0
 22
0.0
 32
0.0
 14
0.0
 24
0.0
 34
0.0
 15
0.0
 25
0.0
 35
0.0
146
0.0
 13
0.0
 23
0.0
 33
0.0
 16
1.0
 26
0.0
 36
0.0
 17
0.0
 27
1.0
 37
0.0
 76
     0
330
23
  0
LAYOUT
  5
22
102
{ACAD_REACTORS
330
1A
102
}
330
1A
100
AcDbPlotSettings
  1

  2
none_device
  4
Letter_(8.50_x_11.00_Inches)
  6

 40
6.35
 41
6.35
 42
6.35000508
 43
6.35000508
 44
215.9
 45
279.4
 46
0.0
 47
0.0
 48
0.0
 49
0.0
140
0.0
141
0.0
142
1.0
143
1.0
 70
  1712
 72
     1
 73
     0
 74
     0
  7

 75
     0
 76
     0
 77
     5
 78
   300
147
1.0
148
0.0
149
0.0
100
AcDbLayout
  1
Model
 70
     1
 71
     0
 10
0.0
 20
0.0
 11
302.9997823349792
 21
216.0016055409748
 12
0.0
 22
0.0
 32
0.0
 14
0.0
 24
0.0
 34
0.0
 15
302.9997823349792
 25
216.0016055409748
 35
0.0
146
0.0
 13
0.0
 23
0.0
 33
0.0
 16
1.0
 26
0.0
 36
0.0
 17
0.0
 27
1.0
 37
0.0
 76
     0
330
1F
331
29
  0
MATERIAL
  5
45
102
{ACAD_REACTORS
330
43
102
}
330
43
100
AcDbMaterial
  1
ByBlock
 72
     1
 94
      127
  0
MATERIAL
  5
44
102
{ACAD_REACTORS
330
43
102
}
330
43
100
AcDbMaterial
  1
ByLayer
 72
     1
 94
      127
  0
MATERIAL
  5
46
102
{ACAD_REACTORS
330
43
102
}
330
43
100
AcDbMaterial
  1
Global
 72
     1
 94
      127
  0
MLEADERSTYLE
  5
5C
102
{ACAD_REACTORS
330
5B
102
}
330
5B
100
AcDbMLeaderStyle
179
     2
170
     2
171
     1
172
     0
 90
        2
 40
0.0
 41
0.0
173
     1
 91
-1056964608
340
14
 92
       -2
290
     1
 42
2.0
291
     1
 43
8.0
  3
Standard
341
0
 44
4.0
300

342
11
174
     1
178
     6
175
     1
176
     0
 93
-1056964608
 45
4.0
292
     0
297
     0
 46
4.0
343
0
 94
-1056964608
 47
1.0
 49
1.0
140
1.0
293
     1
141
0.0
294
     1
177
     0
142
1.0
295
     0
296
     0
143
3.75
271
     0
272
     9
273
     9
298
     0
  0
MLINESTYLE
  5
18
102
{ACAD_REACTORS
330
17
102
}
330
17
100
AcDbMlineStyle
  2
Standard
 70
     0
  3

 62
   256
 51
90.0
 52
90.0
 71
     2
 49
0.5
 62
   256
  6
BYLAYER
 49
-0.5
 62
   256
  6
BYLAYER
  0
ACDBPLACEHOLDER
  5
F
102
{ACAD_REACTORS
330
E
102
}
330
E
  0
SCALE
  5
48
102
{ACAD_REACTORS
330
47
102
}
330
47
100
AcDbScale
 70
     0
300
1:1
140
1.0
141
1.0
290
     1
  0
SCALE
  5
49
102
{ACAD_REACTORS
330
47
102
}
330
47
100
AcDbScale
 70
     0
300
1:2
140
1.0
141
2.0
290
     0
  0
SCALE
  5
4A
102
{ACAD_REACTORS
330
47
102
}
330
47
100
AcDbScale
 70
     0
300
1:4
140
1.0
141
4.0
290
     0
  0
SCALE
  5
4B
102
{ACAD_REACTORS
330
47
102
}
330
47
100
AcDbScale
 70
     0
300
1:5
140
1.0
141
5.0
290
     0
  0
SCALE
  5
4C
102
{ACAD_REACTORS
330
47
102
}
330
47
100
AcDbScale
 70
     0
300
1:8
140
1.0
141
8.0
290
     0
  0
SCALE
  5
4D
102
{ACAD_REACTORS
330
47
102
}
330
47
100
AcDbScale
 70
     0
300
1:10
140
1.0
141
10.0
290
     0
  0
SCALE
  5
4E
102
{ACAD_REACTORS
330
47
102
}
330
47
100
AcDbScale
 70
     0
300
1:16
140
1.0
141
16.0
290
     0
  0
SCALE
  5
4F
102
{ACAD_REACTORS
330
47
102
}
330
47
100
AcDbScale
 70
     0
300
1:20
140
1.0
141
20.0
290
     0
  0
SCALE
  5
50
102
{ACAD_REACTORS
330
47
102
}
330
47
100
AcDbScale
 70
     0
300
1:30
140
1.0
141
30.0
290
     0
  0
SCALE
  5
51
102
{ACAD_REACTORS
330
47
102
}
330
47
100
AcDbScale
 70
     0
300
1:40
140
1.0
141
40.0
290
     0
  0
SCALE
  5
52
102
{ACAD_REACTORS
330
47
102
}
330
47
100
AcDbScale
 70
     0
300
1:50
140
1.0
141
50.0
290
     0
  0
SCALE
  5
53
102
{ACAD_REACTORS
330
47
102
}
330
47
100
AcDbScale
 70
     0
300
1:100
140
1.0
141
100.0
290
     0
  0
SCALE
  5
54
102
{ACAD_REACTORS
330
47
102
}
330
47
100
AcDbScale
 70
     0
300
2:1
140
2.0
141
1.0
290
     0
  0
SCALE
  5
55
102
{ACAD_REACTORS
330
47
102
}
330
47
100
AcDbScale
 70
     0
300
4:1
140
4.0
141
1.0
290
     0
  0
SCALE
  5
56
102
{ACAD_REACTORS
330
47
102
}
330
47
100
AcDbScale
 70
     0
300
8:1
140
8.0
141
1.0
290
     0
  0
SCALE
  5
57
102
{ACAD_REACTORS
330
47
102
}
330
47
100
AcDbScale
 70
     0
300
10:1
140
10.0
141
1.0
290
     0
  0
SCALE
  5
58
102
{ACAD_REACTORS
330
47
102
}
330
47
100
AcDbScale
 70
     0
300
100:1
140
100.0
141
1.0
290
     0
  0
TABLESTYLE
  5
5A
102
{ACAD_REACTORS
330
59
102
}
102
{ACAD_XDICTIONARY
360
A2
102
}
330
59
100
AcDbTableStyle
  3
Standard
 70
     0
 71
     0
 40
0.06
 41
0.06
280
     0
281
     0
  7
Standard
140
4.5
170
     2
 62
     0
 63
   257
283
     0
 90
        4
 91
        0
  1

274
    -2
284
     1
 64
     0
275
    -2
285
     1
 65
     0
276
    -2
286
     1
 66
     0
277
    -2
287
     1
 67
     0
278
    -2
288
     1
 68
     0
279
    -2
289
     1
 69
     0
  7
Standard
140
6.0
170
     5
 62
     0
 63
   257
283
     0
 90
        4
 91
        0
  1

274
    -2
284
     1
 64
     0
275
    -2
285
     1
 65
     0
276
    -2
286
     1
 66
     0
277
    -2
287
     1
 67
     0
278
    -2
288
     1
 68
     0
279
    -2
289
     1
 69
     0
  7
Standard
140
4.5
170
     5
 62
     0
 63
   257
283
     0
 90
        4
 91
        0
  1

274
    -2
284
     1
 64
     0
275
    -2
285
     1
 65
     0
276
    -2
286
     1
 66
     0
277
    -2
287
     1
 67
     0
278
    -2
288
     1
 68
     0
279
    -2
289
     1
 69
     0
  0
VISUALSTYLE
  5
2F
102
{ACAD_REACTORS
330
2A
102
}
330
2A
100
AcDbVisualStyle
  2
2dWireframe
 70
     4
177
     3
291
     0
 70
    58
 90
        0
176
     1
 90
        2
176
     1
 90
        0
176
     1
 90
        0
176
     1
 40
0.6
176
     1
 40
30.0
176
     1
 62
     7
420
 16777215
176
     1
 90
        1
176
     1
 90
        4
176
     1
 62
     7
176
     1
 62
   257
176
     1
 90
        1
176
     1
 90
        1
176
     1
 40
1.0
176
     1
 90
        0
176
     1
 62
   257
176
     1
 40
1.0
176
     1
 90
        1
176
     1
 90
        6
176
     1
 90
        2
176
     1
 62
     7
176
     1
 90
        5
176
     1
 90
        0
176
     1
 90
        0
176
     1
290
     0
176
     1
 90
        1
176
     1
 40
0.0
176
     1
 90
        0
176
     1
290
     1
176
     1
290
     1
176
     1
290
     0
176
     1
290
     0
176
     1
290
     0
176
     1
290
     0
176
     1
290
     0
176
     1
290
     0
176
     1
290
     0
176
     1
 90
       50
176
     1
 40
0.0
176
     1
 40
1.0
176
     1
 90
        0
176
     1
 62
    18
420
        0
176
     1
 90
       50
176
     1
 90
        3
176
     1
 62
     5
420
      255
176
     1
290
     0
176
     1
 90
       50
176
     1
 90
       50
176
     1
 90
       50
176
     1
290
     0
176
     1
 90
       50
176
     1
 62
   256
176
     0
 40
1.0
176
     0
 90
        2
176
     1
  1
strokes_ogs.tif
176
     1
290
     0
176
     1
 40
1.0
176
     1
 40
1.0
176
     1
  0
VISUALSTYLE
  5
32
102
{ACAD_REACTORS
330
2A
102
}
330
2A
100
AcDbVisualStyle
  2
Basic
 70
     7
177
     3
291
     1
 70
    58
 90
        1
176
     1
 90
        0
176
     1
 90
        1
176
     1
 90
        0
176
     1
 40
0.6
176
     1
 40
30.0
176
     1
 62
     7
420
 16777215
176
     1
 90
        0
176
     1
 90
        4
176
     1
 62
     7
176
     1
 62
   257
176
     1
 90
        1
176
     1
 90
        1
176
     1
 40
1.0
176
     1
 90
        8
176
     1
 62
     7
176
     1
 40
1.0
176
     1
 90
        1
176
     1
 90
        6
176
     1
 90
        2
176
     1
 62
     7
176
     1
 90
        5
176
     1
 90
        0
176
     1
 90
        0
176
     1
290
     0
176
     1
 90
        1
176
     1
 40
0.0
176
     1
 90
        0
176
     1
290
     0
176
     1
290
     1
176
     1
290
     1
176
     1
290
     0
176
     1
290
     0
176
     1
290
     0
176
     1
290
     0
176
     1
290
     0
176
     1
290
     0
176
     1
 90
       50
176
     1
 40
0.0
176
     1
 40
1.0
176
     1
 90
        0
176
     1
 62
    18
420
        0
176
     1
 90
       50
176
     1
 90
        3
176
     1
 62
     5
420
      255
176
     1
290
     0
176
     1
 90
       50
176
     1
 90
       50
176
     1
 90
       50
176
     1
290
     0
176
     1
 90
       50
176
     1
 62
   256
176
     0
 40
1.0
176
     0
 90
        2
176
     1
  1
strokes_ogs.tif
176
     1
290
     0
176
     1
 40
1.0
176
     1
 40
1.0
176
     1
  0
VISUALSTYLE
  5
36
102
{ACAD_REACTORS
330
2A
102
}
330
2A
100
AcDbVisualStyle
  2
Brighten
 70
    12
177
     3
291
     1
 70
    58
 90
        2
176
     1
 90
        2
176
     1
 90
        0
176
     1
 90
        0
176
     1
 40
0.6
176
     1
 40
30.0
176
     1
 62
     7
420
 16777215
176
     1
 90
        1
176
     1
 90
        4
176
     1
 62
     7
176
     1
 62
   257
176
     1
 90
        1
176
     1
 90
        1
176
     1
 40
1.0
176
     1
 90
        8
176
     1
 62
     7
176
     1
 40
1.0
176
     1
 90
        1
176
     1
 90
        6
176
     1
 90
        2
176
     1
 62
     7
176
     1
 90
        5
176
     1
 90
        0
176
     1
 90
        0
176
     1
290
     0
176
     1
 90
        1
176
     1
 40
50.0
176
     1
 90
        0
176
     1
290
     0
176
     1
290
     1
176
     1
290
     1
176
     1
290
     0
176
     1
290
     0
176
     1
290
     0
176
     1
290
     0
176
     1
290
     0
176
     1
290
     0
176
     1
 90
       50
176
     1
 40
0.0
176
     1
 40
1.0
176
     1
 90
        0
176
     1
 62
    18
420
        0
176
     1
 90
       50
176
     1
 90
        3
176
     1
 62
     5
420
      255
176
     1
290
     0
176
     1
 90
       50
176
     1
 90
       50
176
     1
 90
       50
176
     1
290
     0
176
     1
 90
       50
176
     1
 62
   256
176
     0
 40
1.0
176
     0
 90
        2
176
     1
  1
strokes_ogs.tif
176
     1
290
     0
176
     1
 40
1.0
176
     1
 40
1.0
176
     1
  0
VISUALSTYLE
  5
3A
102
{ACAD_REACTORS
330
2A
102
}
330
2A
100
AcDbVisualStyle
  2
ColorChange
 70
    16
177
     3
291
     1
 70
    58
 90
        2
176
     1
 90
        2
176
     1
 90
        3
176
     1
 90
        0
176
     1
 40
0.6
176
     1
 40
30.0
176
     1
 62
     8
420
  8421504
176
     1
 90
        1
176
     1
 90
        4
176
     1
 62
     7
176
     1
 62
   257
176
     1
 90
        1
176
     1
 90
        1
176
     1
 40
1.0
176
     1
 90
        8
176
     1
 62
     8
420
  8421504
176
     1
 40
1.0
176
     1
 90
        1
176
     1
 90
        6
176
     1
 90
        2
176
     1
 62
     7
176
     1
 90
        5
176
     1
 90
        0
176
     1
 90
        0
176
     1
290
     0
176
     1
 90
        1
176
     1
 40
0.0
176
     1
 90
        0
176
     1
290
     0
176
     1
290
     1
176
     1
290
     1
176
     1
290
     0
176
     1
290
     0
176
     1
290
     0
176
     1
290
     0
176
     1
290
     0
176
     1
290
     0
176
     1
 90
       50
176
     1
 40
0.0
176
     1
 40
1.0
176
     1
 90
        0
176
     1
 62
    18
420
        0
176
     1
 90
       50
176
     1
 90
        3
176
     1
 62
     5
420
      255
176
     1
290
     0
176
     1
 90
       50
176
     1
 90
       50
176
     1
 90
       50
176
     1
290
     0
176
     1
 90
       50
176
     1
 62
   256
176
     0
 40
1.0
176
     0
 90
        2
176
     1
  1
strokes_ogs.tif
176
     1
290
     0
176
     1
 40
1.0
176
     1
 40
1.0
176
     1
  0
VISUALSTYLE
  5
34
102
{ACAD_REACTORS
330
2A
102
}
330
2A
100
AcDbVisualStyle
  2
Conceptual
 70
     9
177
     3
291
     0
 70
    58
 90
        3
176
     1
 90
        2
176
     1
 90
        0
176
     1
 90
        0
176
     1
 40
0.6
176
     1
 40
30.0
176
     1
 62
     7
420
 16777215
176
     1
 90
        2
176
     1
 90
        2
176
     1
 62
     7
176
     1
 62
   257
176
     1
 90
        1
176
     1
 90
        1
176
     1
 40
179.0
176
     1
 90
        8
176
     1
 62
     7
176
     1
 40
1.0
176
     1
 90
        1
176
     1
 90
        6
176
     1
 90
        2
176
     1
 62
     7
176
     1
 90
        3
176
     1
 90
        0
176
     1
 90
        0
176
     1
290
     0
176
     1
 90
        1
176
     1
 40
0.0
176
     1
 90
        0
176
     1
290
     0
176
     1
290
     1
176
     1
290
     1
176
     1
290
     0
176
     1
290
     0
176
     1
290
     0
176
     1
290
     0
176
     1
290
     0
176
     1
290
     0
176
     1
 90
       50
176
     1
 40
0.0
176
     1
 40
1.0
176
     1
 90
        0
176
     1
 62
    18
420
        0
176
     1
 90
       50
176
     1
 90
        3
176
     1
 62
     5
420
      255
176
     1
290
     0
176
     1
 90
       50
176
     1
 90
       50
176
     1
 90
       50
176
     1
290
     0
176
     1
 90
       50
176
     1
 62
   256
176
     0
 40
1.0
176
     0
 90
        2
176
     1
  1
strokes_ogs.tif
176
     1
290
     0
176
     1
 40
1.0
176
     1
 40
1.0
176
     1
  0
VISUALSTYLE
  5
35
102
{ACAD_REACTORS
330
2A
102
}
330
2A
100
AcDbVisualStyle
  2
Dim
 70
    11
177
     3
291
     1
 70
    58
 90
        2
176
     1
 90
        2
176
     1
 90
        0
176
     1
 90
        0
176
     1
 40
0.6
176
     1
 40
30.0
176
     1
 62
     7
420
 16777215
176
     1
 90
        1
176
     1
 90
        4
176
     1
 62
     7
176
     1
 62
   257
176
     1
 90
        1
176
     1
 90
        1
176
     1
 40
1.0
176
     1
 90
        8
176
     1
 62
     7
176
     1
 40
1.0
176
     1
 90
        1
176
     1
 90
        6
176
     1
 90
        2
176
     1
 62
     7
176
     1
 90
        5
176
     1
 90
        0
176
     1
 90
        0
176
     1
290
     0
176
     1
 90
        1
176
     1
 40
-50.0
176
     1
 90
        0
176
     1
290
     0
176
     1
290
     1
176
     1
290
     1
176
     1
290
     0
176
     1
290
     0
176
     1
290
     0
176
     1
290
     0
176
     1
290
     0
176
     1
290
     0
176
     1
 90
       50
176
     1
 40
0.0
176
     1
 40
1.0
176
     1
 90
        0
176
     1
 62
    18
420
        0
176
     1
 90
       50
176
     1
 90
        3
176
     1
 62
     5
420
      255
176
     1
290
     0
176
     1
 90
       50
176
     1
 90
       50
176
     1
 90
       50
176
     1
290
     0
176
     1
 90
       50
176
     1
 62
   256
176
     0
 40
1.0
176
     0
 90
        2
176
     1
  1
strokes_ogs.tif
176
     1
290
     0
176
     1
 40
1.0
176
     1
 40
1.0
176
     1
  0
VISUALSTYLE
  5
3D
102
{ACAD_REACTORS
330
2A
102
}
330
2A
100
AcDbVisualStyle
  2
EdgeColorOff
 70
    22
177
     3
291
     1
 70
    58
 90
        2
176
     0
 90
        2
176
     0
 90
        0
176
     0
 90
        0
176
     0
 40
0.6
176
     0
 40
30.0
176
     0
 62
     7
420
 16777215
176
     0
 90
        1
176
     0
 90
        4
176
     0
 62
     7
176
     0
 62
   257
176
     0
 90
        1
176
     0
 90
        1
176
     0
 40
1.0
176
     0
 90
        8
176
     2
 62
     7
176
     0
 40
1.0
176
     0
 90
        1
176
     0
 90
        6
176
     0
 90
        2
176
     0
 62
     7
176
     0
 90
        5
176
     0
 90
        0
176
     0
 90
        0
176
     0
290
     0
176
     0
 90
        1
176
     0
 40
0.0
176
     0
 90
        0
176
     0
290
     0
176
     0
290
     1
176
     0
290
     1
176
     0
290
     0
176
     0
290
     0
176
     0
290
     0
176
     0
290
     0
176
     0
290
     0
176
     0
290
     0
176
     0
 90
       50
176
     0
 40
0.0
176
     0
 40
1.0
176
     0
 90
        0
176
     0
 62
    18
420
        0
176
     0
 90
       50
176
     0
 90
        3
176
     0
 62
     5
420
      255
176
     0
290
     0
176
     0
 90
       50
176
     0
 90
       50
176
     0
 90
       50
176
     0
290
     0
176
     0
 90
       50
176
     0
 62
   256
176
     0
 40
1.0
176
     0
 90
        2
176
     0
  1
strokes_ogs.tif
176
     0
290
     0
176
     0
 40
1.0
176
     0
 40
1.0
176
     0
  0
VISUALSTYLE
  5
39
102
{ACAD_REACTORS
330
2A
102
}
330
2A
100
AcDbVisualStyle
  2
Facepattern
 70
    15
177
     3
291
     1
 70
    58
 90
        2
176
     1
 90
        2
176
     1
 90
        0
176
     1
 90
        0
176
     1
 40
0.6
176
     1
 40
30.0
176
     1
 62
     7
420
 16777215
176
     1
 90
        1
176
     1
 90
        4
176
     1
 62
     7
176
     1
 62
   257
176
     1
 90
        1
176
     1
 90
        1
176
     1
 40
1.0
176
     1
 90
        8
176
     1
 62
     7
176
     1
 40
1.0
176
     1
 90
        1
176
     1
 90
        6
176
     1
 90
        2
176
     1
 62
     7
176
     1
 90
        5
176
     1
 90
        0
176
     1
 90
        0
176
     1
290
     0
176
     1
 90
        1
176
     1
 40
0.0
176
     1
 90
        0
176
     1
290
     0
176
     1
290
     1
176
     1
290
     1
176
     1
290
     0
176
     1
290
     0
176
     1
290
     0
176
     1
290
     0
176
     1
290
     0
176
     1
290
     0
176
     1
 90
       50
176
     1
 40
0.0
176
     1
 40
1.0
176
     1
 90
        0
176
     1
 62
    18
420
        0
176
     1
 90
       50
176
     1
 90
        3
176
     1
 62
     5
420
      255
176
     1
290
     0
176
     1
 90
       50
176
     1
 90
       50
176
     1
 90
       50
176
     1
290
     0
176
     1
 90
       50
176
     1
 62
   256
176
     0
 40
1.0
176
     0
 90
        2
176
     1
  1
strokes_ogs.tif
176
     1
290
     0
176
     1
 40
1.0
176
     1
 40
1.0
176
     1
  0
VISUALSTYLE
  5
2B
102
{ACAD_REACTORS
330
2A
102
}
330
2A
100
AcDbVisualStyle
  2
Flat
 70
     0
177
     3
291
     1
 70
    58
 90
        2
176
     1
 90
        1
176
     1
 90
        1
176
     1
 90
        2
176
     1
 40
0.6
176
     1
 40
30.0
176
     1
 62
     7
420
 16777215
176
     1
 90
        0
176
     1
 90
        0
176
     1
 62
     7
176
     1
 62
   257
176
     1
 90
        1
176
     1
 90
        1
176
     1
 40
1.0
176
     1
 90
        8
176
     1
 62
     7
176
     1
 40
1.0
176
     1
 90
        1
176
     1
 90
        6
176
     1
 90
        2
176
     1
 62
     7
176
     1
 90
        5
176
     1
 90
        0
176
     1
 90
        0
176
     1
290
     0
176
     1
 90
       13
176
     1
 40
0.0
176
     1
 90
        0
176
     1
290
     0
176
     1
290
     1
176
     1
290
     1
176
     1
290
     0
176
     1
290
     0
176
     1
290
     0
176
     1
290
     0
176
     1
290
     0
176
     1
290
     0
176
     1
 90
       50
176
     1
 40
0.0
176
     1
 40
1.0
176
     1
 90
        0
176
     1
 62
    18
420
        0
176
     1
 90
       50
176
     1
 90
        3
176
     1
 62
     5
420
      255
176
     1
290
     0
176
     1
 90
       50
176
     1
 90
       50
176
     1
 90
       50
176
     1
290
     0
176
     1
 90
       50
176
     1
 62
   256
176
     0
 40
1.0
176
     0
 90
        2
176
     1
  1
strokes_ogs.tif
176
     1
290
     0
176
     1
 40
1.0
176
     1
 40
1.0
176
     1
  0
VISUALSTYLE
  5
2C
102
{ACAD_REACTORS
330
2A
102
}
330
2A
100
AcDbVisualStyle
  2
FlatWithEdges
 70
     1
177
     3
291
     1
 70
    58
 90
        2
176
     1
 90
        1
176
     1
 90
        1
176
     1
 90
        2
176
     1
 40
0.6
176
     1
 40
30.0
176
     1
 62
     7
420
 16777215
176
     1
 90
        1
176
     1
 90
        0
176
     1
 62
     7
176
     1
 62
   257
176
     1
 90
        1
176
     1
 90
        1
176
     1
 40
1.0
176
     1
 90
        0
176
     1
 62
   257
176
     1
 40
1.0
176
     1
 90
        1
176
     1
 90
        6
176
     1
 90
        2
176
     1
 62
     7
176
     1
 90
        5
176
     1
 90
        0
176
     1
 90
        0
176
     1
290
     0
176
     1
 90
       13
176
     1
 40
0.0
176
     1
 90
        0
176
     1
290
     0
176
     1
290
     1
176
     1
290
     1
176
     1
290
     0
176
     1
290
     0
176
     1
290
     0
176
     1
290
     0
176
     1
290
     0
176
     1
290
     0
176
     1
 90
       50
176
     1
 40
0.0
176
     1
 40
1.0
176
     1
 90
        0
176
     1
 62
    18
420
        0
176
     1
 90
       50
176
     1
 90
        3
176
     1
 62
     5
420
      255
176
     1
290
     0
176
     1
 90
       50
176
     1
 90
       50
176
     1
 90
       50
176
     1
290
     0
176
     1
 90
       50
176
     1
 62
   256
176
     0
 40
1.0
176
     0
 90
        2
176
     1
  1
strokes_ogs.tif
176
     1
290
     0
176
     1
 40
1.0
176
     1
 40
1.0
176
     1
  0
VISUALSTYLE
  5
2D
102
{ACAD_REACTORS
330
2A
102
}
330
2A
100
AcDbVisualStyle
  2
Gouraud
 70
     2
177
     3
291
     1
 70
    58
 90
        2
176
     1
 90
        2
176
     1
 90
        1
176
     1
 90
        2
176
     1
 40
0.6
176
     1
 40
30.0
176
     1
 62
     7
420
 16777215
176
     1
 90
        0
176
     1
 90
        0
176
     1
 62
     7
176
     1
 62
   257
176
     1
 90
        1
176
     1
 90
        1
176
     1
 40
1.0
176
     1
 90
        0
176
     1
 62
     7
176
     1
 40
1.0
176
     1
 90
        1
176
     1
 90
        6
176
     1
 90
        2
176
     1
 62
     7
176
     1
 90
        5
176
     1
 90
        0
176
     1
 90
        0
176
     1
290
     0
176
     1
 90
       13
176
     1
 40
0.0
176
     1
 90
        0
176
     1
290
     0
176
     1
290
     1
176
     1
290
     1
176
     1
290
     0
176
     1
290
     0
176
     1
290
     0
176
     1
290
     0
176
     1
290
     0
176
     1
290
     0
176
     1
 90
       50
176
     1
 40
0.0
176
     1
 40
1.0
176
     1
 90
        0
176
     1
 62
    18
420
        0
176
     1
 90
       50
176
     1
 90
        3
176
     1
 62
     5
420
      255
176
     1
290
     0
176
     1
 90
       50
176
     1
 90
       50
176
     1
 90
       50
176
     1
290
     0
176
     1
 90
       50
176
     1
 62
   256
176
     0
 40
1.0
176
     0
 90
        2
176
     1
  1
strokes_ogs.tif
176
     1
290
     0
176
     1
 40
1.0
176
     1
 40
1.0
176
     1
  0
VISUALSTYLE
  5
2E
102
{ACAD_REACTORS
330
2A
102
}
330
2A
100
AcDbVisualStyle
  2
GouraudWithEdges
 70
     3
177
     3
291
     1
 70
    58
 90
        2
176
     1
 90
        2
176
     1
 90
        1
176
     1
 90
        2
176
     1
 40
0.6
176
     1
 40
30.0
176
     1
 62
     7
420
 16777215
176
     1
 90
        1
176
     1
 90
        0
176
     1
 62
     7
176
     1
 62
   257
176
     1
 90
        1
176
     1
 90
        1
176
     1
 40
1.0
176
     1
 90
        0
176
     1
 62
   257
176
     1
 40
1.0
176
     1
 90
        1
176
     1
 90
        6
176
     1
 90
        2
176
     1
 62
     7
176
     1
 90
        5
176
     1
 90
        0
176
     1
 90
        0
176
     1
290
     0
176
     1
 90
       13
176
     1
 40
0.0
176
     1
 90
        0
176
     1
290
     0
176
     1
290
     1
176
     1
290
     1
176
     1
290
     0
176
     1
290
     0
176
     1
290
     0
176
     1
290
     0
176
     1
290
     0
176
     1
290
     0
176
     1
 90
       50
176
     1
 40
0.0
176
     1
 40
1.0
176
     1
 90
        0
176
     1
 62
    18
420
        0
176
     1
 90
       50
176
     1
 90
        3
176
     1
 62
     5
420
      255
176
     1
290
     0
176
     1
 90
       50
176
     1
 90
       50
176
     1
 90
       50
176
     1
290
     0
176
     1
 90
       50
176
     1
 62
   256
176
     0
 40
1.0
176
     0
 90
        2
176
     1
  1
strokes_ogs.tif
176
     1
290
     0
176
     1
 40
1.0
176
     1
 40
1.0
176
     1
  0
VISUALSTYLE
  5
31
102
{ACAD_REACTORS
330
2A
102
}
330
2A
100
AcDbVisualStyle
  2
Hidden
 70
     6
177
     3
291
     0
 70
    58
 90
        1
176
     1
 90
        2
176
     1
 90
        2
176
     1
 90
        0
176
     1
 40
0.6
176
     1
 40
30.0
176
     1
 62
     7
420
 16777215
176
     1
 90
        2
176
     1
 90
        2
176
     1
 62
     7
176
     1
 62
   257
176
     1
 90
        2
176
     1
 90
        1
176
     1
 40
40.0
176
     1
 90
        0
176
     1
 62
   257
176
     1
 40
1.0
176
     1
 90
        1
176
     1
 90
        6
176
     1
 90
        2
176
     1
 62
     7
176
     1
 90
        3
176
     1
 90
        0
176
     1
 90
        0
176
     1
290
     0
176
     1
 90
        1
176
     1
 40
0.0
176
     1
 90
        0
176
     1
290
     0
176
     1
290
     1
176
     1
290
     1
176
     1
290
     0
176
     1
290
     0
176
     1
290
     0
176
     1
290
     0
176
     1
290
     0
176
     1
290
     0
176
     1
 90
       50
176
     1
 40
0.0
176
     1
 40
1.0
176
     1
 90
        0
176
     1
 62
    18
420
        0
176
     1
 90
       50
176
     1
 90
        3
176
     1
 62
     5
420
      255
176
     1
290
     0
176
     1
 90
       50
176
     1
 90
       50
176
     1
 90
       50
176
     1
290
     0
176
     1
 90
       50
176
     1
 62
   256
176
     0
 40
1.0
176
     0
 90
        2
176
     1
  1
strokes_ogs.tif
176
     1
290
     0
176
     1
 40
1.0
176
     1
 40
1.0
176
     1
  0
VISUALSTYLE
  5
3B
102
{ACAD_REACTORS
330
2A
102
}
330
2A
100
AcDbVisualStyle
  2
JitterOff
 70
    20
177
     3
291
     1
 70
    58
 90
        2
176
     0
 90
        2
176
     0
 90
        0
176
     0
 90
        0
176
     0
 40
0.6
176
     0
 40
30.0
176
     0
 62
     7
420
 16777215
176
     0
 90
        1
176
     0
 90
        4
176
     0
 62
     7
176
     0
 62
   257
176
     0
 90
        1
176
     0
 90
        1
176
     0
 40
1.0
176
     0
 90
       10
176
     2
 62
     7
176
     0
 40
1.0
176
     0
 90
        1
176
     0
 90
        6
176
     0
 90
        2
176
     0
 62
     7
176
     0
 90
        5
176
     0
 90
        0
176
     0
 90
        0
176
     0
290
     0
176
     0
 90
        1
176
     0
 40
0.0
176
     0
 90
        0
176
     0
290
     0
176
     0
290
     1
176
     0
290
     1
176
     0
290
     0
176
     0
290
     0
176
     0
290
     0
176
     0
290
     0
176
     0
290
     0
176
     0
290
     0
176
     0
 90
       50
176
     0
 40
0.0
176
     0
 40
1.0
176
     0
 90
        0
176
     0
 62
    18
420
        0
176
     0
 90
       50
176
     0
 90
        3
176
     0
 62
     5
420
      255
176
     0
290
     0
176
     0
 90
       50
176
     0
 90
       50
176
     0
 90
       50
176
     0
290
     0
176
     0
 90
       50
176
     0
 62
   256
176
     0
 40
1.0
176
     0
 90
        2
176
     0
  1
strokes_ogs.tif
176
     0
290
     0
176
     0
 40
1.0
176
     0
 40
1.0
176
     0
  0
VISUALSTYLE
  5
38
102
{ACAD_REACTORS
330
2A
102
}
330
2A
100
AcDbVisualStyle
  2
Linepattern
 70
    14
177
     3
291
     1
 70
    58
 90
        2
176
     1
 90
        2
176
     1
 90
        0
176
     1
 90
        0
176
     1
 40
0.6
176
     1
 40
30.0
176
     1
 62
     7
420
 16777215
176
     1
 90
        1
176
     1
 90
        4
176
     1
 62
     7
176
     1
 62
   257
176
     1
 90
        7
176
     1
 90
        7
176
     1
 40
1.0
176
     1
 90
        8
176
     1
 62
     7
176
     1
 40
1.0
176
     1
 90
        1
176
     1
 90
        6
176
     1
 90
        2
176
     1
 62
     7
176
     1
 90
        5
176
     1
 90
        0
176
     1
 90
        0
176
     1
290
     0
176
     1
 90
        1
176
     1
 40
0.0
176
     1
 90
        0
176
     1
290
     0
176
     1
290
     1
176
     1
290
     1
176
     1
290
     0
176
     1
290
     0
176
     1
290
     0
176
     1
290
     0
176
     1
290
     0
176
     1
290
     0
176
     1
 90
       50
176
     1
 40
0.0
176
     1
 40
1.0
176
     1
 90
        0
176
     1
 62
    18
420
        0
176
     1
 90
       50
176
     1
 90
        3
176
     1
 62
     5
420
      255
176
     1
290
     0
176
     1
 90
       50
176
     1
 90
       50
176
     1
 90
       50
176
     1
290
     0
176
     1
 90
       50
176
     1
 62
   256
176
     0
 40
1.0
176
     0
 90
        2
176
     1
  1
strokes_ogs.tif
176
     1
290
     0
176
     1
 40
1.0
176
     1
 40
1.0
176
     1
  0
VISUALSTYLE
  5
3C
102
{ACAD_REACTORS
330
2A
102
}
330
2A
100
AcDbVisualStyle
  2
OverhangOff
 70
    21
177
     3
291
     1
 70
    58
 90
        2
176
     0
 90
        2
176
     0
 90
        0
176
     0
 90
        0
176
     0
 40
0.6
176
     0
 40
30.0
176
     0
 62
     7
420
 16777215
176
     0
 90
        1
176
     0
 90
        4
176
     0
 62
     7
176
     0
 62
   257
176
     0
 90
        1
176
     0
 90
        1
176
     0
 40
1.0
176
     0
 90
        9
176
     2
 62
     7
176
     0
 40
1.0
176
     0
 90
        1
176
     0
 90
        6
176
     0
 90
        2
176
     0
 62
     7
176
     0
 90
        5
176
     0
 90
        0
176
     0
 90
        0
176
     0
290
     0
176
     0
 90
        1
176
     0
 40
0.0
176
     0
 90
        0
176
     0
290
     0
176
     0
290
     1
176
     0
290
     1
176
     0
290
     0
176
     0
290
     0
176
     0
290
     0
176
     0
290
     0
176
     0
290
     0
176
     0
290
     0
176
     0
 90
       50
176
     0
 40
0.0
176
     0
 40
1.0
176
     0
 90
        0
176
     0
 62
    18
420
        0
176
     0
 90
       50
176
     0
 90
        3
176
     0
 62
     5
420
      255
176
     0
290
     0
176
     0
 90
       50
176
     0
 90
       50
176
     0
 90
       50
176
     0
290
     0
176
     0
 90
       50
176
     0
 62
   256
176
     0
 40
1.0
176
     0
 90
        2
176
     0
  1
strokes_ogs.tif
176
     0
290
     0
176
     0
 40
1.0
176
     0
 40
1.0
176
     0
  0
VISUALSTYLE
  5
33
102
{ACAD_REACTORS
330
2A
102
}
330
2A
100
AcDbVisualStyle
  2
Realistic
 70
     8
177
     3
291
     0
 70
    58
 90
        2
176
     1
 90
        3
176
     1
 90
        0
176
     1
 90
        2
176
     1
 40
0.6
176
     1
 40
30.0
176
     1
 62
     7
420
 16777215
176
     1
 90
        0
176
     1
 90
        0
176
     1
 62
     7
176
     1
 62
   257
176
     1
 90
        1
176
     1
 90
        1
176
     1
 40
1.0
176
     1
 90
        8
176
     1
 62
   257
176
     1
 40
1.0
176
     1
 90
        1
176
     1
 90
        6
176
     1
 90
        2
176
     1
 62
     7
176
     1
 90
        3
176
     1
 90
        0
176
     1
 90
        0
176
     1
290
     0
176
     1
 90
       13
176
     1
 40
0.0
176
     1
 90
        0
176
     1
290
     0
176
     1
290
     1
176
     1
290
     1
176
     1
290
     0
176
     1
290
     0
176
     1
290
     0
176
     1
290
     0
176
     1
290
     0
176
     1
290
     0
176
     1
 90
       50
176
     1
 40
0.0
176
     1
 40
1.0
176
     1
 90
        0
176
     1
 62
    18
420
        0
176
     1
 90
       50
176
     1
 90
        3
176
     1
 62
     5
420
      255
176
     1
290
     0
176
     1
 90
       50
176
     1
 90
       50
176
     1
 90
       50
176
     1
290
     0
176
     1
 90
       50
176
     1
 62
   256
176
     0
 40
1.0
176
     0
 90
        2
176
     1
  1
strokes_ogs.tif
176
     1
290
     0
176
     1
 40
1.0
176
     1
 40
1.0
176
     1
  0
VISUALSTYLE
  5
42
102
{ACAD_REACTORS
330
2A
102
}
330
2A
100
AcDbVisualStyle
  2
Shaded
 70
    27
177
     3
291
     0
 70
    58
 90
        2
176
     1
 90
        2
176
     1
 90
        1
176
     1
 90
        2
176
     1
 40
0.6
176
     1
 40
30.0
176
     1
 62
     7
420
 16777215
176
     1
 90
        0
176
     1
 90
        4
176
     1
 62
     7
176
     1
 62
   257
176
     1
 90
        1
176
     1
 90
        1
176
     1
 40
1.0
176
     1
 90
        8
176
     1
 62
   257
176
     1
 40
1.0
176
     1
 90
        1
176
     1
 90
        6
176
     1
 90
        2
176
     1
 62
     8
420
  7895160
176
     1
 90
        3
176
     1
 90
        0
176
     1
 90
        0
176
     1
290
     0
176
     1
 90
        5
176
     1
 40
0.0
176
     1
 90
        0
176
     1
290
     0
176
     1
290
     1
176
     1
290
     1
176
     1
290
     0
176
     1
290
     0
176
     1
290
     0
176
     1
290
     0
176
     1
290
     0
176
     1
290
     0
176
     1
 90
       50
176
     1
 40
0.0
176
     1
 40
1.0
176
     1
 90
        0
176
     1
 62
    18
420
        0
176
     1
 90
       50
176
     1
 90
        3
176
     1
 62
     5
420
      255
176
     1
290
     0
176
     1
 90
       50
176
     1
 90
       50
176
     1
 90
       50
176
     1
290
     0
176
     1
 90
       50
176
     1
 62
   256
176
     0
 40
1.0
176
     0
 90
        2
176
     1
  1
strokes_ogs.tif
176
     1
290
     0
176
     1
 40
1.0
176
     1
 40
1.0
176
     1
  0
VISUALSTYLE
  5
41
102
{ACAD_REACTORS
330
2A
102
}
330
2A
100
AcDbVisualStyle
  2
Shaded with edges
 70
    26
177
     3
291
     0
 70
    58
 90
        2
176
     1
 90
        2
176
     1
 90
        1
176
     1
 90
        2
176
     1
 40
0.6
176
     1
 40
30.0
176
     1
 62
     7
420
 16777215
176
     1
 90
        1
176
     1
 90
       10
176
     1
 62
     7
176
     1
 62
   257
176
     1
 90
        2
176
     1
 90
        1
176
     1
 40
1.0
176
     1
 90
        8
176
     1
 62
   257
176
     1
 40
1.0
176
     1
 90
        1
176
     1
 90
        6
176
     1
 90
        2
176
     1
 62
     7
176
     1
 90
        3
176
     1
 90
        0
176
     1
 90
        0
176
     1
290
     0
176
     1
 90
        5
176
     1
 40
0.0
176
     1
 90
        0
176
     1
290
     0
176
     1
290
     1
176
     1
290
     1
176
     1
290
     0
176
     1
290
     0
176
     1
290
     0
176
     1
290
     0
176
     1
290
     0
176
     1
290
     0
176
     1
 90
       50
176
     1
 40
0.0
176
     1
 40
1.0
176
     1
 90
        0
176
     1
 62
    18
420
        0
176
     1
 90
       50
176
     1
 90
        3
176
     1
 62
     5
420
      255
176
     1
290
     0
176
     1
 90
       50
176
     1
 90
       50
176
     1
 90
       50
176
     1
290
     0
176
     1
 90
       50
176
     1
 62
   256
176
     0
 40
1.0
176
     0
 90
        2
176
     1
  1
strokes_ogs.tif
176
     1
290
     0
176
     1
 40
1.0
176
     1
 40
1.0
176
     1
  0
VISUALSTYLE
  5
3E
102
{ACAD_REACTORS
330
2A
102
}
330
2A
100
AcDbVisualStyle
  2
Shades of Gray
 70
    23
177
     3
291
     0
 70
    58
 90
        2
176
     1
 90
        2
176
     1
 90
        3
176
     1
 90
        0
176
     1
 40
0.6
176
     1
 40
30.0
176
     1
 62
     7
420
 16777215
176
     1
 90
        2
176
     1
 90
        2
176
     1
 62
     7
176
     1
 62
     7
176
     1
 90
        1
176
     1
 90
        1
176
     1
 40
40.0
176
     1
 90
        8
176
     1
 62
     7
176
     1
 40
1.0
176
     1
 90
        1
176
     1
 90
        6
176
     1
 90
        2
176
     1
 62
     7
176
     1
 90
        3
176
     1
 90
        0
176
     1
 90
        0
176
     1
290
     0
176
     1
 90
        1
176
     1
 40
0.0
176
     1
 90
        0
176
     1
290
     0
176
     1
290
     1
176
     1
290
     1
176
     1
290
     0
176
     1
290
     0
176
     1
290
     0
176
     1
290
     0
176
     1
290
     0
176
     1
290
     0
176
     1
 90
       50
176
     1
 40
0.0
176
     1
 40
1.0
176
     1
 90
        0
176
     1
 62
    18
420
        0
176
     1
 90
       50
176
     1
 90
        3
176
     1
 62
     5
420
      255
176
     1
290
     0
176
     1
 90
       50
176
     1
 90
       50
176
     1
 90
       50
176
     1
290
     0
176
     1
 90
       50
176
     1
 62
   256
176
     0
 40
1.0
176
     0
 90
        2
176
     1
  1
strokes_ogs.tif
176
     1
290
     0
176
     1
 40
1.0
176
     1
 40
1.0
176
     1
  0
VISUALSTYLE
  5
3F
102
{ACAD_REACTORS
330
2A
102
}
330
2A
100
AcDbVisualStyle
  2
Sketchy
 70
    24
177
     3
291
     0
 70
    58
 90
        1
176
     1
 90
        2
176
     1
 90
        2
176
     1
 90
        0
176
     1
 40
0.6
176
     1
 40
30.0
176
     1
 62
     7
420
 16777215
176
     1
 90
        2
176
     1
 90
        2
176
     1
 62
     7
176
     1
 62
     7
176
     1
 90
        1
176
     1
 90
        1
176
     1
 40
40.0
176
     1
 90
       11
176
     1
 62
     7
176
     1
 40
1.0
176
     1
 90
        1
176
     1
 90
        6
176
     1
 90
        2
176
     1
 62
     7
176
     1
 90
        6
176
     1
 90
        0
176
     1
 90
        0
176
     1
290
     0
176
     1
 90
        1
176
     1
 40
0.0
176
     1
 90
        0
176
     1
290
     0
176
     1
290
     1
176
     1
290
     1
176
     1
290
     0
176
     1
290
     0
176
     1
290
     0
176
     1
290
     0
176
     1
290
     0
176
     1
290
     0
176
     1
 90
       50
176
     1
 40
0.0
176
     1
 40
1.0
176
     1
 90
        0
176
     1
 62
    18
420
        0
176
     1
 90
       50
176
     1
 90
        3
176
     1
 62
     5
420
      255
176
     1
290
     0
176
     1
 90
       50
176
     1
 90
       50
176
     1
 90
       50
176
     1
290
     0
176
     1
 90
       50
176
     1
 62
   256
176
     0
 40
1.0
176
     0
 90
        2
176
     1
  1
strokes_ogs.tif
176
     1
290
     0
176
     1
 40
1.0
176
     1
 40
1.0
176
     1
  0
VISUALSTYLE
  5
37
102
{ACAD_REACTORS
330
2A
102
}
330
2A
100
AcDbVisualStyle
  2
Thicken
 70
    13
177
     3
291
     1
 70
    58
 90
        2
176
     1
 90
        2
176
     1
 90
        0
176
     1
 90
        0
176
     1
 40
0.6
176
     1
 40
30.0
176
     1
 62
     7
420
 16777215
176
     1
 90
        1
176
     1
 90
        4
176
     1
 62
     7
176
     1
 62
   257
176
     1
 90
        1
176
     1
 90
        1
176
     1
 40
1.0
176
     1
 90
       12
176
     1
 62
     7
176
     1
 40
1.0
176
     1
 90
        1
176
     1
 90
        6
176
     1
 90
        2
176
     1
 62
     7
176
     1
 90
        5
176
     1
 90
        0
176
     1
 90
        0
176
     1
290
     0
176
     1
 90
        1
176
     1
 40
0.0
176
     1
 90
        0
176
     1
290
     0
176
     1
290
     1
176
     1
290
     1
176
     1
290
     0
176
     1
290
     0
176
     1
290
     0
176
     1
290
     0
176
     1
290
     0
176
     1
290
     0
176
     1
 90
       50
176
     1
 40
0.0
176
     1
 40
1.0
176
     1
 90
        0
176
     1
 62
    18
420
        0
176
     1
 90
       50
176
     1
 90
        3
176
     1
 62
     5
420
      255
176
     1
290
     0
176
     1
 90
       50
176
     1
 90
       50
176
     1
 90
       50
176
     1
290
     0
176
     1
 90
       50
176
     1
 62
   256
176
     0
 40
1.0
176
     0
 90
        2
176
     1
  1
strokes_ogs.tif
176
     1
290
     0
176
     1
 40
1.0
176
     1
 40
1.0
176
     1
  0
VISUALSTYLE
  5
30
102
{ACAD_REACTORS
330
2A
102
}
330
2A
100
AcDbVisualStyle
  2
Wireframe
 70
     5
177
     3
291
     0
 70
    58
 90
        0
176
     1
 90
        2
176
     1
 90
        0
176
     1
 90
        0
176
     1
 40
0.6
176
     1
 40
30.0
176
     1
 62
     7
420
 16777215
176
     1
 90
        1
176
     1
 90
        4
176
     1
 62
     7
176
     1
 62
   257
176
     1
 90
        1
176
     1
 90
        1
176
     1
 40
1.0
176
     1
 90
        0
176
     1
 62
   257
176
     1
 40
1.0
176
     1
 90
        1
176
     1
 90
        6
176
     1
 90
        2
176
     1
 62
     7
176
     1
 90
        3
176
     1
 90
        0
176
     1
 90
        0
176
     1
290
     0
176
     1
 90
        1
176
     1
 40
0.0
176
     1
 90
        0
176
     1
290
     0
176
     1
290
     1
176
     1
290
     1
176
     1
290
     0
176
     1
290
     0
176
     1
290
     0
176
     1
290
     0
176
     1
290
     0
176
     1
290
     0
176
     1
 90
       50
176
     1
 40
0.0
176
     1
 40
1.0
176
     1
 90
        0
176
     1
 62
    18
420
        0
176
     1
 90
       50
176
     1
 90
        3
176
     1
 62
     5
420
      255
176
     1
290
     0
176
     1
 90
       50
176
     1
 90
       50
176
     1
 90
       50
176
     1
290
     0
176
     1
 90
       50
176
     1
 62
   256
176
     0
 40
1.0
176
     0
 90
        2
176
     1
  1
strokes_ogs.tif
176
     1
290
     0
176
     1
 40
1.0
176
     1
 40
1.0
176
     1
  0
VISUALSTYLE
  5
40
102
{ACAD_REACTORS
330
2A
102
}
330
2A
100
AcDbVisualStyle
  2
X-Ray
 70
    25
177
     3
291
     0
 70
    58
 90
        2
176
     1
 90
        2
176
     1
 90
        1
176
     1
 90
        1
176
     1
 40
0.5
176
     1
 40
30.0
176
     1
 62
     7
420
 16777215
176
     1
 90
        1
176
     1
 90
        0
176
     1
 62
     7
176
     1
 62
   257
176
     1
 90
        1
176
     1
 90
        1
176
     1
 40
1.0
176
     1
 90
        8
176
     1
 62
     7
176
     1
 40
1.0
176
     1
 90
        1
176
     1
 90
        6
176
     1
 90
        2
176
     1
 62
     7
176
     1
 90
        3
176
     1
 90
        0
176
     1
 90
        0
176
     1
290
     0
176
     1
 90
       13
176
     1
 40
0.0
176
     1
 90
        0
176
     1
290
     0
176
     1
290
     1
176
     1
290
     1
176
     1
290
     0
176
     1
290
     0
176
     1
290
     0
176
     1
290
     0
176
     1
290
     0
176
     1
290
     0
176
     1
 90
       50
176
     1
 40
0.0
176
     1
 40
1.0
176
     1
 90
        0
176
     1
 62
    18
420
        0
176
     1
 90
       50
176
     1
 90
        3
176
     1
 62
     5
420
      255
176
     1
290
     0
176
     1
 90
       50
176
     1
 90
       50
176
     1
 90
       50
176
     1
290
     0
176
     1
 90
       50
176
     1
 62
   256
176
     0
 40
1.0
176
     0
 90
        2
176
     1
  1
strokes_ogs.tif
176
     1
290
     0
176
     1
 40
1.0
176
     1
 40
1.0
176
     1
  0
DICTIONARYVAR
  5
A1
102
{ACAD_REACTORS
330
A0
102
}
330
A0
100
DictionaryVariables
280
     0
  1
1:1
  0
DICTIONARYVAR
  5
A9
102
{ACAD_REACTORS
330
A0
102
}
330
A0
100
DictionaryVariables
280
     0
  1
3.500000
  0
DICTIONARYVAR
  5
AA
102
{ACAD_REACTORS
330
A0
102
}
330
A0
100
DictionaryVariables
280
     0
  1
acadiso.lin
  0
DICTIONARYVAR
  5
A6
102
{ACAD_REACTORS
330
A0
102
}
330
A0
100
DictionaryVariables
280
     0
  1
Standard
  0
DICTIONARYVAR
  5
A5
102
{ACAD_REACTORS
330
A0
102
}
330
A0
100
DictionaryVariables
280
     0
  1
Standard
  0
DICTIONARY
  5
A2
330
5A
100
AcDbDictionary
280
     1
281
     1
  3
ACAD_ROUNDTRIP_2008_TABLESTYLE_CELLSTYLEMAP
360
A3
  0
CELLSTYLEMAP
  5
A3
102
{ACAD_REACTORS
330
A2
102
}
330
A2
100
AcDbCellStyleMap
 90
        3
300
CELLSTYLE
  1
TABLEFORMAT_BEGIN
 90
        5
170
     1
 91
        0
 92
    32768
 62
   257
 93
        1
300
CONTENTFORMAT
  1
CONTENTFORMAT_BEGIN
 90
        0
 91
        0
 92
        4
 93
        0
300

 40
0.0
140
1.0
 94
        5
 62
     0
340
11
144
6.0
309
CONTENTFORMAT_END
171
     1
301
MARGIN
  1
CELLMARGIN_BEGIN
 40
1.5
 40
1.5
 40
1.5
 40
1.5
 40
1.5
 40
1.5
309
CELLMARGIN_END
 94
        6
 95
        1
302
GRIDFORMAT
  1
GRIDFORMAT_BEGIN
 90
        0
 91
        1
 62
     0
 92
       -2
340
14
 93
        0
 40
0.045
309
GRIDFORMAT_END
 95
        2
302
GRIDFORMAT
  1
GRIDFORMAT_BEGIN
 90
        0
 91
        1
 62
     0
 92
       -2
340
14
 93
        0
 40
0.045
309
GRIDFORMAT_END
 95
        4
302
GRIDFORMAT
  1
GRIDFORMAT_BEGIN
 90
        0
 91
        1
 62
     0
 92
       -2
340
14
 93
        0
 40
0.045
309
GRIDFORMAT_END
 95
        8
302
GRIDFORMAT
  1
GRIDFORMAT_BEGIN
 90
        0
 91
        1
 62
     0
 92
       -2
340
14
 93
        0
 40
0.045
309
GRIDFORMAT_END
 95
       16
302
GRIDFORMAT
  1
GRIDFORMAT_BEGIN
 90
        0
 91
        1
 62
     0
 92
       -2
340
14
 93
        0
 40
0.045
309
GRIDFORMAT_END
 95
       32
302
GRIDFORMAT
  1
GRIDFORMAT_BEGIN
 90
        0
 91
        1
 62
     0
 92
       -2
340
14
 93
        0
 40
0.045
309
GRIDFORMAT_END
309
TABLEFORMAT_END
  1
CELLSTYLE_BEGIN
 90
        1
 91
        1
300
_TITLE
309
CELLSTYLE_END
300
CELLSTYLE
  1
TABLEFORMAT_BEGIN
 90
        5
170
     1
 91
        0
 92
        0
 62
   257
 93
        1
300
CONTENTFORMAT
  1
CONTENTFORMAT_BEGIN
 90
        0
 91
        0
 92
        4
 93
        0
300

 40
0.0
140
1.0
 94
        5
 62
     0
340
11
144
4.5
309
CONTENTFORMAT_END
171
     1
301
MARGIN
  1
CELLMARGIN_BEGIN
 40
1.5
 40
1.5
 40
1.5
 40
1.5
 40
1.5
 40
1.5
309
CELLMARGIN_END
 94
        6
 95
        1
302
GRIDFORMAT
  1
GRIDFORMAT_BEGIN
 90
        0
 91
        1
 62
     0
 92
       -2
340
14
 93
        0
 40
0.045
309
GRIDFORMAT_END
 95
        2
302
GRIDFORMAT
  1
GRIDFORMAT_BEGIN
 90
        0
 91
        1
 62
     0
 92
       -2
340
14
 93
        0
 40
0.045
309
GRIDFORMAT_END
 95
        4
302
GRIDFORMAT
  1
GRIDFORMAT_BEGIN
 90
        0
 91
        1
 62
     0
 92
       -2
340
14
 93
        0
 40
0.045
309
GRIDFORMAT_END
 95
        8
302
GRIDFORMAT
  1
GRIDFORMAT_BEGIN
 90
        0
 91
        1
 62
     0
 92
       -2
340
14
 93
        0
 40
0.045
309
GRIDFORMAT_END
 95
       16
302
GRIDFORMAT
  1
GRIDFORMAT_BEGIN
 90
        0
 91
        1
 62
     0
 92
       -2
340
14
 93
        0
 40
0.045
309
GRIDFORMAT_END
 95
       32
302
GRIDFORMAT
  1
GRIDFORMAT_BEGIN
 90
        0
 91
        1
 62
     0
 92
       -2
340
14
 93
        0
 40
0.045
309
GRIDFORMAT_END
309
TABLEFORMAT_END
  1
CELLSTYLE_BEGIN
 90
        2
 91
        1
300
_HEADER
309
CELLSTYLE_END
300
CELLSTYLE
  1
TABLEFORMAT_BEGIN
 90
        5
170
     1
 91
        0
 92
        0
 62
   257
 93
        1
300
CONTENTFORMAT
  1
CONTENTFORMAT_BEGIN
 90
        0
 91
        0
 92
        4
 93
        0
300

 40
0.0
140
1.0
 94
        2
 62
     0
340
11
144
4.5
309
CONTENTFORMAT_END
171
     1
301
MARGIN
  1
CELLMARGIN_BEGIN
 40
1.5
 40
1.5
 40
1.5
 40
1.5
 40
1.5
 40
1.5
309
CELLMARGIN_END
 94
        6
 95
        1
302
GRIDFORMAT
  1
GRIDFORMAT_BEGIN
 90
        0
 91
        1
 62
     0
 92
       -2
340
14
 93
        0
 40
0.045
309
GRIDFORMAT_END
 95
        2
302
GRIDFORMAT
  1
GRIDFORMAT_BEGIN
 90
        0
 91
        1
 62
     0
 92
       -2
340
14
 93
        0
 40
0.045
309
GRIDFORMAT_END
 95
        4
302
GRIDFORMAT
  1
GRIDFORMAT_BEGIN
 90
        0
 91
        1
 62
     0
 92
       -2
340
14
 93
        0
 40
0.045
309
GRIDFORMAT_END
 95
        8
302
GRIDFORMAT
  1
GRIDFORMAT_BEGIN
 90
        0
 91
        1
 62
     0
 92
       -2
340
14
 93
        0
 40
0.045
309
GRIDFORMAT_END
 95
       16
302
GRIDFORMAT
  1
GRIDFORMAT_BEGIN
 90
        0
 91
        1
 62
     0
 92
       -2
340
14
 93
        0
 40
0.045
309
GRIDFORMAT_END
 95
       32
302
GRIDFORMAT
  1
GRIDFORMAT_BEGIN
 90
        0
 91
        1
 62
     0
 92
       -2
340
14
 93
        0
 40
0.045
309
GRIDFORMAT_END
309
TABLEFORMAT_END
  1
CELLSTYLE_BEGIN
 90
        3
 91
        2
300
_DATA
309
CELLSTYLE_END
  0
ENDSEC
  0
EOF
