  0
SECTION
  2
HEADER
  9
$ACADVER
  1
AC1027
  9
$ACADMAINTVER
 70
   105
  9
$DWGCODEPAGE
  3
ANSI_932
  9
$LASTSAVEDBY
  1
a.yasuda
  9
$REQUIREDVERSIONS
160
                 0
  9
$INSBASE
 10
0.0
 20
0.0
 30
0.0
  9
$EXTMIN
 10
0.0
 20
0.0
 30
0.0
  9
$EXTMAX
 10
302.9997823349792
 20
216.0016055409748
 30
0.0
  9
$LIMMIN
 10
0.0
 20
0.0
  9
$LIMMAX
 10
302.9997823349792
 20
216.0016055409748
  9
$ORTHOMODE
 70
     0
  9
$REGENMODE
 70
     1
  9
$FILLMODE
 70
     1
  9
$QTEXTMODE
 70
     0
  9
$MIRRTEXT
 70
     1
  9
$LTSCALE
 40
1.0
  9
$ATTMODE
 70
     1
  9
$TEXTSIZE
 40
2.5
  9
$TRACEWID
 40
1.0
  9
$TEXTSTYLE
  7
Standard
  9
$CLAYER
  8
0
  9
$CELTYPE
  6
ByLayer
  9
$CECOLOR
 62
   256
  9
$CELTSCALE
 40
1.0
  9
$DISPSILH
 70
     0
  9
$DIMSCALE
 40
1.0
  9
$DIMASZ
 40
2.5
  9
$DIMEXO
 40
0.625
  9
$DIMDLI
 40
3.75
  9
$DIMRND
 40
0.0
  9
$DIMDLE
 40
0.0
  9
$DIMEXE
 40
1.25
  9
$DIMTP
 40
0.0
  9
$DIMTM
 40
0.0
  9
$DIMTXT
 40
2.5
  9
$DIMCEN
 40
2.5
  9
$DIMTSZ
 40
0.0
  9
$DIMTOL
 70
     0
  9
$DIMLIM
 70
     0
  9
$DIMTIH
 70
     0
  9
$DIMTOH
 70
     0
  9
$DIMSE1
 70
     0
  9
$DIMSE2
 70
     0
  9
$DIMTAD
 70
     1
  9
$DIMZIN
 70
     8
  9
$DIMBLK
  1

  9
$DIMASO
 70
     1
  9
$DIMSHO
 70
     1
  9
$DIMPOST
  1

  9
$DIMAPOST
  1

  9
$DIMALT
 70
     0
  9
$DIMALTD
 70
     3
  9
$DIMALTF
 40
0.03937007874016
  9
$DIMLFAC
 40
1.0
  9
$DIMTOFL
 70
     1
  9
$DIMTVP
 40
0.0
  9
$DIMTIX
 70
     0
  9
$DIMSOXD
 70
     0
  9
$DIMSAH
 70
     0
  9
$DIMBLK1
  1

  9
$DIMBLK2
  1

  9
$DIMSTYLE
  2
ISO-25
  9
$DIMCLRD
 70
     0
  9
$DIMCLRE
 70
     0
  9
$DIMCLRT
 70
     0
  9
$DIMTFAC
 40
1.0
  9
$DIMGAP
 40
0.625
  9
$DIMJUST
 70
     0
  9
$DIMSD1
 70
     0
  9
$DIMSD2
 70
     0
  9
$DIMTOLJ
 70
     0
  9
$DIMTZIN
 70
     8
  9
$DIMALTZ
 70
     0
  9
$DIMALTTZ
 70
     0
  9
$DIMUPT
 70
     0
  9
$DIMDEC
 70
     2
  9
$DIMTDEC
 70
     2
  9
$DIMALTU
 70
     2
  9
$DIMALTTD
 70
     3
  9
$DIMTXSTY
  7
Standard
  9
$DIMAUNIT
 70
     0
  9
$DIMADEC
 70
     0
  9
$DIMALTRND
 40
0.0
  9
$DIMAZIN
 70
     0
  9
$DIMDSEP
 70
    44
  9
$DIMATFIT
 70
     3
  9
$DIMFRAC
 70
     0
  9
$DIMLDRBLK
  1

  9
$DIMLUNIT
 70
     2
  9
$DIMLWD
 70
    -2
  9
$DIMLWE
 70
    -2
  9
$DIMTMOVE
 70
     0
  9
$DIMFXL
 40
1.0
  9
$DIMFXLON
 70
     0
  9
$DIMJOGANG
 40
0.7853981633974483
  9
$DIMTFILL
 70
     0
  9
$DIMTFILLCLR
 70
     0
  9
$DIMARCSYM
 70
     0
  9
$DIMLTYPE
  6

  9
$DIMLTEX1
  6

  9
$DIMLTEX2
  6

  9
$DIMTXTDIRECTION
 70
     0
  9
$LUNITS
 70
     2
  9
$LUPREC
 70
     4
  9
$SKETCHINC
 40
1.0
  9
$FILLETRAD
 40
0.0
  9
$AUNITS
 70
     0
  9
$AUPREC
 70
     0
  9
$MENU
  1
.
  9
$ELEVATION
 40
0.0
  9
$PELEVATION
 40
0.0
  9
$THICKNESS
 40
0.0
  9
$LIMCHECK
 70
     0
  9
$CHAMFERA
 40
0.0
  9
$CHAMFERB
 40
0.0
  9
$CHAMFERC
 40
0.0
  9
$CHAMFERD
 40
0.0
  9
$SKPOLY
 70
     0
  9
$TDCREATE
 40
2459866.618882407
  9
$TDUCREATE
 40
2459866.243882407
  9
$TDUPDATE
 40
2459866.618882454
  9
$TDUUPDATE
 40
2459866.243882454
  9
$TDINDWG
 40
0.0000000116
  9
$TDUSRTIMER
 40
0.0000000116
  9
$USRTIMER
 70
     1
  9
$ANGBASE
 50
0.0
  9
$ANGDIR
 70
     0
  9
$PDMODE
 70
     0
  9
$PDSIZE
 40
0.0
  9
$PLINEWID
 40
0.0
  9
$SPLFRAME
 70
     0
  9
$SPLINETYPE
 70
     6
  9
$SPLINESEGS
 70
     8
  9
$HANDSEED
  5
A9
  9
$SURFTAB1
 70
     6
  9
$SURFTAB2
 70
     6
  9
$SURFTYPE
 70
     6
  9
$SURFU
 70
     6
  9
$SURFV
 70
     6
  9
$UCSBASE
  2

  9
$UCSNAME
  2

  9
$UCSORG
 10
0.0
 20
0.0
 30
0.0
  9
$UCSXDIR
 10
1.0
 20
0.0
 30
0.0
  9
$UCSYDIR
 10
0.0
 20
1.0
 30
0.0
  9
$UCSORTHOREF
  2

  9
$UCSORTHOVIEW
 70
     0
  9
$UCSORGTOP
 10
0.0
 20
0.0
 30
0.0
  9
$UCSORGBOTTOM
 10
0.0
 20
0.0
 30
0.0
  9
$UCSORGLEFT
 10
0.0
 20
0.0
 30
0.0
  9
$UCSORGRIGHT
 10
0.0
 20
0.0
 30
0.0
  9
$UCSORGFRONT
 10
0.0
 20
0.0
 30
0.0
  9
$UCSORGBACK
 10
0.0
 20
0.0
 30
0.0
  9
$PUCSBASE
  2

  9
$PUCSNAME
  2

  9
$PUCSORG
 10
0.0
 20
0.0
 30
0.0
  9
$PUCSXDIR
 10
1.0
 20
0.0
 30
0.0
  9
$PUCSYDIR
 10
0.0
 20
1.0
 30
0.0
  9
$PUCSORTHOREF
  2

  9
$PUCSORTHOVIEW
 70
     0
  9
$PUCSORGTOP
 10
0.0
 20
0.0
 30
0.0
  9
$PUCSORGBOTTOM
 10
0.0
 20
0.0
 30
0.0
  9
$PUCSORGLEFT
 10
0.0
 20
0.0
 30
0.0
  9
$PUCSORGRIGHT
 10
0.0
 20
0.0
 30
0.0
  9
$PUCSORGFRONT
 10
0.0
 20
0.0
 30
0.0
  9
$PUCSORGBACK
 10
0.0
 20
0.0
 30
0.0
  9
$USERI1
 70
     0
  9
$USERI2
 70
     0
  9
$USERI3
 70
     0
  9
$USERI4
 70
     0
  9
$USERI5
 70
     0
  9
$USERR1
 40
0.0
  9
$USERR2
 40
0.0
  9
$USERR3
 40
0.0
  9
$USERR4
 40
0.0
  9
$USERR5
 40
0.0
  9
$WORLDVIEW
 70
     1
  9
$SHADEDGE
 70
     3
  9
$SHADEDIF
 70
    70
  9
$TILEMODE
 70
     1
  9
$MAXACTVP
 70
    64
  9
$PINSBASE
 10
0.0
 20
0.0
 30
0.0
  9
$PLIMCHECK
 70
     0
  9
$PEXTMIN
 10
1.000000000000000E+20
 20
1.000000000000000E+20
 30
1.000000000000000E+20
  9
$PEXTMAX
 10
-1.000000000000000E+20
 20
-1.000000000000000E+20
 30
-1.000000000000000E+20
  9
$PLIMMIN
 10
0.0
 20
0.0
  9
$PLIMMAX
 10
420.0
 20
297.0
  9
$UNITMODE
 70
     0
  9
$VISRETAIN
 70
     1
  9
$PLINEGEN
 70
     0
  9
$PSLTSCALE
 70
     1
  9
$TREEDEPTH
 70
  3020
  9
$CMLSTYLE
  2
Standard
  9
$CMLJUST
 70
     0
  9
$CMLSCALE
 40
20.0
  9
$PROXYGRAPHICS
 70
     1
  9
$MEASUREMENT
 70
     1
  9
$CELWEIGHT
370
    -1
  9
$ENDCAPS
280
     0
  9
$JOINSTYLE
280
     0
  9
$LWDISPLAY
290
     0
  9
$INSUNITS
 70
     4
  9
$HYPERLINKBASE
  1

  9
$STYLESHEET
  1

  9
$XEDIT
290
     1
  9
$CEPSNTYPE
380
     0
  9
$PSTYLEMODE
290
     1
  9
$FINGERPRINTGUID
  2
{e98a3b3b-32dd-43cd-b3a5-8817f2126221}
  9
$VERSIONGUID
  2
{FAEB1C32-E019-11D5-929B-00C0DF256EC4}
  9
$EXTNAMES
290
     1
  9
$PSVPSCALE
 40
0.0
  9
$OLESTARTUP
290
     0
  9
$SORTENTS
280
   127
  9
$INDEXCTL
280
     0
  9
$HIDETEXT
280
     1
  9
$XCLIPFRAME
280
     2
  9
$HALOGAP
280
     0
  9
$OBSCOLOR
 70
   257
  9
$OBSLTYPE
280
     0
  9
$INTERSECTIONDISPLAY
280
     0
  9
$INTERSECTIONCOLOR
 70
   257
  9
$DIMASSOC
280
     2
  9
$PROJECTNAME
  1

  9
$CAMERADISPLAY
290
     0
  9
$LENSLENGTH
 40
50.0
  9
$CAMERAHEIGHT
 40
0.0
  9
$STEPSPERSEC
 40
2.0
  9
$STEPSIZE
 40
6.0
  9
$3DDWFPREC
 40
2.0
  9
$PSOLWIDTH
 40
5.0
  9
$PSOLHEIGHT
 40
80.0
  9
$LOFTANG1
 40
1.570796326794897
  9
$LOFTANG2
 40
1.570796326794897
  9
$LOFTMAG1
 40
0.0
  9
$LOFTMAG2
 40
0.0
  9
$LOFTPARAM
 70
     7
  9
$LOFTNORMALS
280
     1
  9
$LATITUDE
 40
37.795
  9
$LONGITUDE
 40
-122.394
  9
$NORTHDIRECTION
 40
0.0
  9
$TIMEZONE
 70
 -8000
  9
$LIGHTGLYPHDISPLAY
280
     1
  9
$TILEMODELIGHTSYNCH
280
     1
  9
$CMATERIAL
347
44
  9
$SOLIDHIST
280
     0
  9
$SHOWHIST
280
     1
  9
$DWFFRAME
280
     2
  9
$DGNFRAME
280
     2
  9
$REALWORLDSCALE
290
     1
  9
$INTERFERECOLOR
 62
   256
  9
$CSHADOW
280
     0
  9
$SHADOWPLANELOCATION
 40
0.0
  0
ENDSEC
  0
SECTION
  2
CLASSES
  0
CLASS
  1
ACDBDICTIONARYWDFLT
  2
AcDbDictionaryWithDefault
  3
ObjectDBX Classes
 90
        0
 91
        3
280
     0
281
     0
  0
CLASS
  1
VISUALSTYLE
  2
AcDbVisualStyle
  3
ObjectDBX Classes
 90
     4095
 91
        3
280
     0
281
     0
  0
CLASS
  1
MATERIAL
  2
AcDbMaterial
  3
ObjectDBX Classes
 90
     1153
 91
        3
280
     0
281
     0
  0
CLASS
  1
SCALE
  2
AcDbScale
  3
ObjectDBX Classes
 90
     1153
 91
        3
280
     0
281
     0
  0
CLASS
  1
TABLESTYLE
  2
AcDbTableStyle
  3
ObjectDBX Classes
 90
     4095
 91
        3
280
     0
281
     0
  0
CLASS
  1
MLEADERSTYLE
  2
AcDbMLeaderStyle
  3
ACDB_MLEADERSTYLE_CLASS
 90
     4095
 91
        3
280
     0
281
     0
  0
CLASS
  1
SUN
  2
AcDbSun
  3
SCENEOE
 90
     1153
 91
        3
280
     0
281
     0
  0
CLASS
  1
DICTIONARYVAR
  2
AcDbDictionaryVar
  3
ObjectDBX Classes
 90
        0
 91
        3
280
     0
281
     0
  0
CLASS
  1
CELLSTYLEMAP
  2
AcDbCellStyleMap
  3
ObjectDBX Classes
 90
     1152
 91
        3
280
     0
281
     0
  0
ENDSEC
  0
SECTION
  2
TABLES
  0
TABLE
  2
VPORT
  5
8
330
0
100
AcDbSymbolTable
 70
     1
  0
VPORT
  5
29
330
8
100
AcDbSymbolTableRecord
100
AcDbViewportTableRecord
  2
*Active
 70
     0
 10
0.0
 20
0.0
 11
1.0
 21
1.0
 12
151.4998911674896
 22
108.0008027704874
 13
0.0
 23
0.0
 14
10.0
 24
10.0
 15
10.0
 25
10.0
 16
0.0
 26
0.0
 36
1.0
 17
0.0
 27
0.0
 37
0.0
 40
237.6017660950723
 41
1.402766343222857
 42
50.0
 43
0.0
 44
0.0
 50
0.0
 51
0.0
 71
     0
 72
 10000
 73
     1
 74
     3
 75
     0
 76
     0
 77
     0
 78
     0
281
     0
 65
     1
110
0.0
120
0.0
130
0.0
111
1.0
121
0.0
131
0.0
112
0.0
122
1.0
132
0.0
 79
     0
146
0.0
348
2F
 60
     3
 61
     5
292
     1
282
     1
141
0.0
142
0.0
 63
   250
361
5D
  0
ENDTAB
  0
TABLE
  2
LTYPE
  5
5
330
0
100
AcDbSymbolTable
 70
     2
  0
LTYPE
  5
14
330
5
100
AcDbSymbolTableRecord
100
AcDbLinetypeTableRecord
  2
ByBlock
 70
     0
  3

 72
    65
 73
     0
 40
0.0
  0
LTYPE
  5
15
330
5
100
AcDbSymbolTableRecord
100
AcDbLinetypeTableRecord
  2
ByLayer
 70
     0
  3

 72
    65
 73
     0
 40
0.0
  0
LTYPE
  5
16
330
5
100
AcDbSymbolTableRecord
100
AcDbLinetypeTableRecord
  2
Continuous
 70
     0
  3
Solid line
 72
    65
 73
     0
 40
0.0
  0
LTYPE
  5
5F
330
5
100
AcDbSymbolTableRecord
100
AcDbLinetypeTableRecord
  2
UserDefined01
 70
     0
  3
----------------                
 72
    65
 73
     2
 40
0.7055555449591743
 49
0.3527777724795871
 74
     0
 49
-0.3527777724795871
 74
     0
  0
ENDTAB
  0
TABLE
  2
LAYER
  5
2
330
0
100
AcDbSymbolTable
 70
     4
  0
LAYER
  5
10
330
2
100
AcDbSymbolTableRecord
100
AcDbLayerTableRecord
  2
0
 70
     0
 62
     7
  6
Continuous
370
    -3
390
F
347
46
348
0
  0
LAYER
  5
60
330
2
100
AcDbSymbolTableRecord
100
AcDbLayerTableRecord
  2
外枠
 70
     0
 62
     7
  6
Continuous
370
    -3
390
F
347
46
348
0
  0
LAYER
  5
61
330
2
100
AcDbSymbolTableRecord
100
AcDbLayerTableRecord
  2
レイヤー2
 70
     0
 62
     7
  6
Continuous
370
    -3
390
F
347
46
348
0
  0
LAYER
  5
62
330
2
100
AcDbSymbolTableRecord
100
AcDbLayerTableRecord
  2
レイヤー3
 70
     0
 62
     7
  6
Continuous
370
    -3
390
F
347
46
348
0
  0
ENDTAB
  0
TABLE
  2
STYLE
  5
3
330
0
100
AcDbSymbolTable
 70
     2
  0
STYLE
  5
11
330
3
100
AcDbSymbolTableRecord
100
AcDbTextStyleTableRecord
  2
Standard
 70
     0
 40
0.0
 41
1.0
 50
0.0
 71
     0
 42
2.5
  3

  4

  0
STYLE
  5
5E
330
3
100
AcDbSymbolTableRecord
100
AcDbTextStyleTableRecord
  2
MS Gothic
 70
     0
 40
1.0
 41
1.0
 50
0.0
 71
     0
 42
2.5
  3
msgothic.ttc
  4

1001
ACAD
1000
MS Gothic
1071
    32817
  0
ENDTAB
  0
TABLE
  2
VIEW
  5
6
330
0
100
AcDbSymbolTable
 70
     0
  0
ENDTAB
  0
TABLE
  2
UCS
  5
7
330
0
100
AcDbSymbolTable
 70
     0
  0
ENDTAB
  0
TABLE
  2
APPID
  5
9
330
0
100
AcDbSymbolTable
 70
     1
  0
APPID
  5
12
330
9
100
AcDbSymbolTableRecord
100
AcDbRegAppTableRecord
  2
ACAD
 70
     0
  0
ENDTAB
  0
TABLE
  2
DIMSTYLE
  5
A
330
0
100
AcDbSymbolTable
 70
     1
100
AcDbDimStyleTable
  0
DIMSTYLE
105
27
330
A
100
AcDbSymbolTableRecord
100
AcDbDimStyleTableRecord
  2
ISO-25
 70
     0
 41
2.5
 42
0.625
 43
3.75
 44
1.25
 73
     0
 74
     0
 77
     1
 78
     8
140
2.5
141
2.5
143
0.03937007874016
147
0.625
171
     3
172
     1
178
     0
271
     2
272
     2
274
     3
278
    44
283
     0
284
     8
340
11
  0
ENDTAB
  0
TABLE
  2
BLOCK_RECORD
  5
1
330
0
100
AcDbSymbolTable
 70
     1
  0
BLOCK_RECORD
  5
1F
330
1
100
AcDbSymbolTableRecord
100
AcDbBlockTableRecord
  2
*Model_Space
340
22
 70
     0
280
     1
281
     0
  0
BLOCK_RECORD
  5
1B
330
1
100
AcDbSymbolTableRecord
100
AcDbBlockTableRecord
  2
*Paper_Space
340
1E
 70
     0
280
     1
281
     0
  0
BLOCK_RECORD
  5
23
330
1
100
AcDbSymbolTableRecord
100
AcDbBlockTableRecord
  2
*Paper_Space0
340
26
 70
     0
280
     1
281
     0
  0
ENDTAB
  0
ENDSEC
  0
SECTION
  2
BLOCKS
  0
BLOCK
  5
20
330
1F
100
AcDbEntity
  8
0
100
AcDbBlockBegin
  2
*Model_Space
 70
     0
 10
0.0
 20
0.0
 30
0.0
  3
*Model_Space
  1

  0
ENDBLK
  5
21
330
1F
100
AcDbEntity
  8
0
100
AcDbBlockEnd
  0
BLOCK
  5
1C
330
1B
100
AcDbEntity
 67
     1
  8
0
100
AcDbBlockBegin
  2
*Paper_Space
 70
     0
 10
0.0
 20
0.0
 30
0.0
  3
*Paper_Space
  1

  0
ENDBLK
  5
1D
330
1B
100
AcDbEntity
 67
     1
  8
0
100
AcDbBlockEnd
  0
BLOCK
  5
24
330
23
100
AcDbEntity
  8
0
100
AcDbBlockBegin
  2
*Paper_Space0
 70
     0
 10
0.0
 20
0.0
 30
0.0
  3
*Paper_Space0
  1

  0
ENDBLK
  5
25
330
23
100
AcDbEntity
  8
0
100
AcDbBlockEnd
  0
ENDSEC
  0
SECTION
  2
ENTITIES
  0
LWPOLYLINE
  5
63
330
1F
100
AcDbEntity
  8
外枠
  6
Continuous
 62
   250
420
  2367521
370
   100
100
AcDbPolyline
 90
        5
 70
     0
 43
0.0
 10
281.9999662644599
 20
13.29407825637392
 10
20.99981607051935
 20
13.29407825637392
 10
20.99981607051935
 20
193.0018900389566
 10
281.9999662644599
 20
193.0018900389566
 10
281.9999662644599
 20
13.29407825637392
  0
LINE
  5
64
330
1F
100
AcDbEntity
  8
外枠
  6
Continuous
 62
   250
420
  2367521
370
    25
100
AcDbLine
 10
223.3097080177524
 20
174.0786160074276
 30
0.0
 11
281.9999232007669
 21
174.0786160074276
 31
0.0
  0
LINE
  5
65
330
1F
100
AcDbEntity
  8
外枠
  6
Continuous
 62
   250
420
  2367521
370
    25
100
AcDbLine
 10
223.3097080177524
 20
50.37109023844297
 30
0.0
 11
281.9999232007669
 21
50.37109023844297
 31
0.0
  0
LINE
  5
66
330
1F
100
AcDbEntity
  8
外枠
  6
Continuous
 62
   250
420
  2367521
370
    25
100
AcDbLine
 10
223.3097080177524
 20
36.25997933925949
 30
0.0
 11
281.9999232007669
 21
36.25997933925949
 31
0.0
  0
LINE
  5
67
330
1F
100
AcDbEntity
  8
外枠
  6
Continuous
 62
   250
420
  2367521
370
    50
100
AcDbLine
 10
223.0158413772006
 20
193.3637327187979
 30
0.0
 11
223.0158413772006
 21
13.29396655992039
 31
0.0
  0
TEXT
  5
68
330
1F
100
AcDbEntity
  8
外枠
  6
Continuous
 62
   250
420
  2367521
100
AcDbText
 10
224.7190965599536
 20
186.6888051931772
 30
0.0
 40
2.688166626294454
  1
品名：
 41
0.974166170756022
  7
MS Gothic
100
AcDbText
  0
TEXT
  5
69
330
1F
100
AcDbEntity
  8
外枠
  6
Continuous
 62
   250
420
  2367521
100
AcDbText
 10
224.7190965599536
 20
168.1080059455944
 30
0.0
 40
2.688166626294454
  1
仕様：
 41
0.9978878657023111
  7
MS Gothic
100
AcDbText
  0
TEXT
  5
6A
330
1F
100
AcDbEntity
  8
外枠
  6
Continuous
 62
   250
420
  2367521
100
AcDbText
 10
224.7190965599536
 20
44.16660664327048
 30
0.0
 40
2.688166626294454
  1
縮尺：
 41
0.9939999262491861
  7
MS Gothic
100
AcDbText
  0
TEXT
  5
6B
330
1F
100
AcDbEntity
  8
外枠
  6
Continuous
 62
   250
420
  2367521
100
AcDbText
 10
250.2379519709696
 20
40.59738467878129
 30
0.0
 40
2.150533301035563
  1
1/1
 41
1.000003814697266
  7
MS Gothic
100
AcDbText
  0
TEXT
  5
6C
330
1F
100
AcDbEntity
  8
外枠
  6
Continuous
 62
   250
420
  2367521
100
AcDbText
 10
232.7757967427735
 20
181.9845273775436
 30
0.0
 40
2.688166626294454
  1
巻上見切　MST-31
 41
1.050625038146973
  7
MS Gothic
100
AcDbText
  0
TEXT
  5
6D
330
1F
100
AcDbEntity
  8
外枠
  6
Continuous
 62
   250
420
  2367521
100
AcDbText
 10
226.1633020978884
 20
24.25683874973963
 30
0.0
 40
2.553758294979732
  1
ヤスダインテリアサプライ株式会社
 41
1.0194908945184
  7
MS Gothic
100
AcDbText
  0
TEXT
  5
6E
330
1F
100
AcDbEntity
  8
外枠
  6
Continuous
 62
   250
420
  2367521
100
AcDbText
 10
227.7635273953072
 20
161.7763665048245
 30
0.0
 40
2.150533301035563
  1
材質
 41
1.028502464294433
  7
MS Gothic
100
AcDbText
  0
TEXT
  5
6F
330
1F
100
AcDbEntity
  8
外枠
  6
Continuous
 62
   250
420
  2367521
100
AcDbText
 10
232.7757967427735
 20
156.199681315683
 30
0.0
 40
2.016124969720841
  1
 ステンレスSUS304（18.8CR）/HL仕上
 41
1.066277118757659
  7
MS Gothic
100
AcDbText
  0
LINE
  5
70
330
1F
100
AcDbEntity
  8
レイヤー2
  6
Continuous
 62
   250
420
  2367521
370
    13
100
AcDbLine
 10
118.9214215538232
 20
87.49887296873567
 30
0.0
 11
118.9214215538232
 21
82.49366068394819
 31
0.0
  0
LINE
  5
71
330
1F
100
AcDbEntity
  8
レイヤー2
  6
Continuous
 62
   250
420
  2367521
370
    13
100
AcDbLine
 10
119.8254253617254
 20
87.49887296873567
 30
0.0
 11
119.8254253617254
 21
77.48880367462738
 31
0.0
  0
LINE
  5
72
330
1F
100
AcDbEntity
  8
レイヤー2
  6
Continuous
 62
   250
420
  2367521
370
    13
100
AcDbLine
 10
118.9214215538232
 20
82.97890237587934
 30
0.0
 11
121.3908659611803
 21
82.97890237587934
 31
0.0
  0
LINE
  5
73
330
1F
100
AcDbEntity
  8
レイヤー2
  6
Continuous
 62
   250
420
  2367521
370
    13
100
AcDbLine
 10
122.5963048536667
 20
87.54297557325722
 30
0.0
 11
122.5963048536667
 21
77.48880905758901
 31
0.0
  0
LINE
  5
74
330
1F
100
AcDbEntity
  8
レイヤー2
  6
Continuous
 62
   250
420
  2367521
370
    13
100
AcDbLine
 10
119.8254253617254
 20
77.99591633960517
 30
0.0
 11
122.9344517364734
 21
77.99591633960517
 31
0.0
  0
LINE
  5
75
330
1F
100
AcDbEntity
  8
レイヤー2
  6
Continuous
 62
   250
420
  2367521
370
    13
100
AcDbLine
 10
116.8130016161417
 20
89.63758283143156
 30
0.0
 11
106.8470295435933
 21
89.63758283143156
 31
0.0
  0
LINE
  5
76
330
1F
100
AcDbEntity
  8
レイヤー2
  6
Continuous
 62
   250
420
  2367521
370
    13
100
AcDbLine
 10
107.354158357456
 20
115.500775531113
 30
0.0
 11
107.354158357456
 21
89.63757744846993
 31
0.0
  0
LINE
  5
77
330
1F
100
AcDbEntity
  8
レイヤー2
  6
Continuous
 62
   250
420
  2367521
370
    13
100
AcDbLine
 10
106.8470295435933
 20
115.500775531113
 30
0.0
 11
116.8793197032533
 21
115.500775531113
 31
0.0
  0
LINE
  5
78
330
1F
100
AcDbEntity
  8
レイヤー2
  6
Continuous
 62
   250
420
  2367521
370
    13
100
AcDbLine
 10
118.8632102069055
 20
117.7249399094661
 30
0.0
 11
118.8632102069055
 21
122.686049589732
 31
0.0
  0
LINE
  5
79
330
1F
100
AcDbEntity
  8
レイヤー2
  6
Continuous
 62
   250
420
  2367521
370
    13
100
AcDbLine
 10
123.643269356172
 20
122.1567214421642
 30
0.0
 11
118.8631348454429
 21
122.1567214421642
 31
0.0
  0
LINE
  5
7A
330
1F
100
AcDbEntity
  8
レイヤー2
  6
Continuous
 62
   250
420
  2367521
370
    13
100
AcDbLine
 10
123.643269356172
 20
122.6858881008836
 30
0.0
 11
123.643269356172
 21
117.7247784206177
 31
0.0
  0
LINE
  5
7B
330
1F
100
AcDbEntity
  8
レイヤー2
  6
Continuous
 62
   250
420
  2367521
370
    13
100
AcDbLine
 10
126.1919617244429
 20
115.500775531113
 30
0.0
 11
131.219044982277
 21
115.500775531113
 31
0.0
  0
LINE
  5
7C
330
1F
100
AcDbEntity
  8
レイヤー2
  6
Continuous
 62
   250
420
  2367521
370
    13
100
AcDbLine
 10
130.7119269343376
 20
108.5775225121243
 30
0.0
 11
130.7119269343376
 21
115.5007862970362
 31
0.0
  0
LINE
  5
7D
330
1F
100
AcDbEntity
  8
レイヤー2
  6
Continuous
 62
   250
420
  2367521
370
    13
100
AcDbLine
 10
131.2190342163538
 20
108.5775225121243
 30
0.0
 11
126.1919509585197
 21
108.5775225121243
 31
0.0
  0
HATCH
  5
7E
330
1F
100
AcDbEntity
  8
レイヤー2
  6
Continuous
 62
   250
420
  2367521
370
    13
100
AcDbHatch
 10
0.0
 20
0.0
 30
0.0
210
0.0
220
0.0
230
1.0
  2
SOLID
 70
     1
 71
     0
 91
        1
 92
        3
 72
     0
 73
     1
 93
       67
 10
130.4621575153457
 20
108.5775225121243
 10
130.4634494261336
 20
108.5519319126009
 10
130.4672282651882
 20
108.5270733958573
 10
130.4733971392004
 20
108.5030869188955
 10
130.4817837933984
 20
108.4801016727943
 10
130.4923021003964
 20
108.4582360827092
 10
130.5048121031925
 20
108.4376193397192
 10
130.5191846107078
 20
108.4183591030564
 10
130.5353119637099
 20
108.4006060956462
 10
130.5530434392737
 20
108.3844679767208
 10
130.57228214409
 20
108.370073937359
 10
130.5928665893104
 20
108.3575531686398
 10
130.6147106475489
 20
108.3470348616417
 10
130.6376528299572
 20
108.3386266755972
 10
130.6615854773029
 20
108.3324685675082
 10
130.6863901644303
 20
108.3286897284537
 10
130.7119269343376
 20
108.3273978176658
 10
130.7119269343376
 20
108.3273978176658
 10
130.7375282997843
 20
108.3286789625304
 10
130.7623760506047
 20
108.3324793334315
 10
130.7863625275665
 20
108.3386266755972
 10
130.8093370077444
 20
108.3470348616417
 10
130.8312241296759
 20
108.3575531686398
 10
130.8518301067427
 20
108.3700847032823
 10
130.8710903434055
 20
108.3844679767208
 10
130.8888433508158
 20
108.4006060956462
 10
130.9049707038179
 20
108.4183591030564
 10
130.9193647431796
 20
108.4376085737959
 10
130.9318855118989
 20
108.4582360827092
 10
130.942403818897
 20
108.4801016727943
 10
130.9508120049415
 20
108.5030869188955
 10
130.9569701130305
 20
108.5270733958573
 10
130.9607489520851
 20
108.5519211466777
 10
130.9620408628729
 20
108.5775225121243
 10
130.9620408628729
 20
108.5775225121243
 10
130.9607489520851
 20
108.6030592820316
 10
130.9569593471072
 20
108.6278532032359
 10
130.9508227708648
 20
108.6517966165047
 10
130.942403818897
 20
108.6747280329898
 10
130.9318747459757
 20
108.6965720912283
 10
130.9193647431796
 20
108.7171673023719
 10
130.9049707038179
 20
108.736395241265
 10
130.8888433508158
 20
108.7541267168288
 10
130.8710795774823
 20
108.7702540698309
 10
130.8518301067427
 20
108.7846373432694
 10
130.8312133637527
 20
108.7971473460655
 10
130.8093477736677
 20
108.8076656530636
 10
130.7863625275665
 20
108.8160630731848
 10
130.7623760506047
 20
108.8222211812738
 10
130.7375282997843
 20
108.8260000203284
 10
130.7119269343376
 20
108.8272919311162
 10
130.7119269343376
 20
108.8272919311162
 10
130.6863901644303
 20
108.8260000203284
 10
130.6615854773029
 20
108.8222104153505
 10
130.6376528299572
 20
108.8160630731848
 10
130.6147106475489
 20
108.8076656530636
 10
130.5928665893104
 20
108.7971473460655
 10
130.57228214409
 20
108.7846373432694
 10
130.5530542051969
 20
108.7702540698309
 10
130.5353119637099
 20
108.7541267168288
 10
130.5191846107078
 20
108.736395241265
 10
130.5048121031925
 20
108.7171673023719
 10
130.4923021003964
 20
108.6965720912283
 10
130.4817837933984
 20
108.674738798913
 10
130.4733863732771
 20
108.6517858505815
 10
130.4672282651882
 20
108.6278532032359
 10
130.4634494261336
 20
108.6030592820316
 97
        0
 75
     1
 76
     1
 98
        0
  0
LWPOLYLINE
  5
7F
330
1F
100
AcDbEntity
  8
レイヤー2
  6
Continuous
 62
   250
420
  2367521
370
    13
100
AcDbPolyline
 90
       68
 70
     0
 43
0.0
 10
130.4621575153457
 20
108.5775225121243
 10
130.4634494261336
 20
108.5519319126009
 10
130.4672282651882
 20
108.5270733958573
 10
130.4733971392004
 20
108.5030869188955
 10
130.4817837933984
 20
108.4801016727943
 10
130.4923021003964
 20
108.4582360827092
 10
130.5048121031925
 20
108.4376193397192
 10
130.5191846107078
 20
108.4183591030564
 10
130.5353119637099
 20
108.4006060956462
 10
130.5530434392737
 20
108.3844679767208
 10
130.57228214409
 20
108.370073937359
 10
130.5928665893104
 20
108.3575531686398
 10
130.6147106475489
 20
108.3470348616417
 10
130.6376528299572
 20
108.3386266755972
 10
130.6615854773029
 20
108.3324685675082
 10
130.6863901644303
 20
108.3286897284537
 10
130.7119269343376
 20
108.3273978176658
 10
130.7119269343376
 20
108.3273978176658
 10
130.7375282997843
 20
108.3286789625304
 10
130.7623760506047
 20
108.3324793334315
 10
130.7863625275665
 20
108.3386266755972
 10
130.8093370077444
 20
108.3470348616417
 10
130.8312241296759
 20
108.3575531686398
 10
130.8518301067427
 20
108.3700847032823
 10
130.8710903434055
 20
108.3844679767208
 10
130.8888433508158
 20
108.4006060956462
 10
130.9049707038179
 20
108.4183591030564
 10
130.9193647431796
 20
108.4376085737959
 10
130.9318855118989
 20
108.4582360827092
 10
130.942403818897
 20
108.4801016727943
 10
130.9508120049415
 20
108.5030869188955
 10
130.9569701130305
 20
108.5270733958573
 10
130.9607489520851
 20
108.5519211466777
 10
130.9620408628729
 20
108.5775225121243
 10
130.9620408628729
 20
108.5775225121243
 10
130.9607489520851
 20
108.6030592820316
 10
130.9569593471072
 20
108.6278532032359
 10
130.9508227708648
 20
108.6517966165047
 10
130.942403818897
 20
108.6747280329898
 10
130.9318747459757
 20
108.6965720912283
 10
130.9193647431796
 20
108.7171673023719
 10
130.9049707038179
 20
108.736395241265
 10
130.8888433508158
 20
108.7541267168288
 10
130.8710795774823
 20
108.7702540698309
 10
130.8518301067427
 20
108.7846373432694
 10
130.8312133637527
 20
108.7971473460655
 10
130.8093477736677
 20
108.8076656530636
 10
130.7863625275665
 20
108.8160630731848
 10
130.7623760506047
 20
108.8222211812738
 10
130.7375282997843
 20
108.8260000203284
 10
130.7119269343376
 20
108.8272919311162
 10
130.7119269343376
 20
108.8272919311162
 10
130.6863901644303
 20
108.8260000203284
 10
130.6615854773029
 20
108.8222104153505
 10
130.6376528299572
 20
108.8160630731848
 10
130.6147106475489
 20
108.8076656530636
 10
130.5928665893104
 20
108.7971473460655
 10
130.57228214409
 20
108.7846373432694
 10
130.5530542051969
 20
108.7702540698309
 10
130.5353119637099
 20
108.7541267168288
 10
130.5191846107078
 20
108.736395241265
 10
130.5048121031925
 20
108.7171673023719
 10
130.4923021003964
 20
108.6965720912283
 10
130.4817837933984
 20
108.674738798913
 10
130.4733863732771
 20
108.6517858505815
 10
130.4672282651882
 20
108.6278532032359
 10
130.4634494261336
 20
108.6030592820316
 10
130.4621575153457
 20
108.5775225121243
  0
HATCH
  5
80
330
1F
100
AcDbEntity
  8
レイヤー2
  6
Continuous
 62
   250
420
  2367521
370
    13
100
AcDbHatch
 10
0.0
 20
0.0
 30
0.0
210
0.0
220
0.0
230
1.0
  2
SOLID
 70
     1
 71
     0
 91
        1
 92
        3
 72
     0
 73
     1
 93
       67
 10
130.4621575153457
 20
115.500775531113
 10
130.4634494261336
 20
115.4751849315896
 10
130.4672282651882
 20
115.4503156489227
 10
130.4733971392004
 20
115.4263399378841
 10
130.4817837933984
 20
115.4033546917829
 10
130.4923021003964
 20
115.3814891016979
 10
130.5048121031925
 20
115.3608723587079
 10
130.5191846107078
 20
115.3416013561218
 10
130.5353119637099
 20
115.3238591146348
 10
130.5530434392737
 20
115.3077209957094
 10
130.57228214409
 20
115.2933269563477
 10
130.5928665893104
 20
115.2808061876284
 10
130.6147106475489
 20
115.2702878806303
 10
130.6376528299572
 20
115.2618796945858
 10
130.6615854773029
 20
115.2557215864969
 10
130.6863901644303
 20
115.2519427474423
 10
130.7119269343376
 20
115.2506508366544
 10
130.7119269343376
 20
115.2506508366544
 10
130.7375282997843
 20
115.2519427474423
 10
130.7623760506047
 20
115.2557323524201
 10
130.7863625275665
 20
115.2618796945858
 10
130.8093370077444
 20
115.2702878806303
 10
130.8312241296759
 20
115.2808061876284
 10
130.8518301067427
 20
115.2933269563477
 10
130.8710903434055
 20
115.3077209957094
 10
130.8888433508158
 20
115.3238591146348
 10
130.9049707038179
 20
115.341612122045
 10
130.9193647431796
 20
115.3608615927846
 10
130.9318855118989
 20
115.3814891016979
 10
130.942403818897
 20
115.4033546917829
 10
130.9508120049415
 20
115.4263399378841
 10
130.9569701130305
 20
115.4503264148459
 10
130.9607489520851
 20
115.4751741656663
 10
130.9620408628729
 20
115.500775531113
 10
130.9620408628729
 20
115.500775531113
 10
130.9607489520851
 20
115.5263123010203
 10
130.9569593471072
 20
115.5511062222245
 10
130.9508227708648
 20
115.5750496354934
 10
130.942403818897
 20
115.5979918179016
 10
130.9318747459757
 20
115.619825110217
 10
130.9193647431796
 20
115.6404203213606
 10
130.9049707038179
 20
115.6596482602537
 10
130.8888433508158
 20
115.6773905017407
 10
130.8710795774823
 20
115.6935070888196
 10
130.8518301067427
 20
115.7078795963349
 10
130.8312133637527
 20
115.7204003650541
 10
130.8093477736677
 20
115.7309186720522
 10
130.7863625275665
 20
115.7393160921735
 10
130.7623760506047
 20
115.7454742002624
 10
130.7375282997843
 20
115.749253039317
 10
130.7119269343376
 20
115.7505449501049
 10
130.7119269343376
 20
115.7505449501049
 10
130.6863901644303
 20
115.749253039317
 10
130.6615854773029
 20
115.7454742002624
 10
130.6376528299572
 20
115.7393160921735
 10
130.6147106475489
 20
115.7309186720522
 10
130.5928665893104
 20
115.7204003650541
 10
130.57228214409
 20
115.7078903622581
 10
130.5530542051969
 20
115.6935070888196
 10
130.5353119637099
 20
115.6773905017407
 10
130.5191846107078
 20
115.6596482602537
 10
130.5048121031925
 20
115.6404203213606
 10
130.4923021003964
 20
115.619825110217
 10
130.4817837933984
 20
115.5979918179016
 10
130.4733863732771
 20
115.5750496354934
 10
130.4672282651882
 20
115.5511062222245
 10
130.4634494261336
 20
115.5263123010203
 97
        0
 75
     1
 76
     1
 98
        0
  0
LWPOLYLINE
  5
81
330
1F
100
AcDbEntity
  8
レイヤー2
  6
Continuous
 62
   250
420
  2367521
370
    13
100
AcDbPolyline
 90
       68
 70
     0
 43
0.0
 10
130.4621575153457
 20
115.500775531113
 10
130.4634494261336
 20
115.4751849315896
 10
130.4672282651882
 20
115.4503156489227
 10
130.4733971392004
 20
115.4263399378841
 10
130.4817837933984
 20
115.4033546917829
 10
130.4923021003964
 20
115.3814891016979
 10
130.5048121031925
 20
115.3608723587079
 10
130.5191846107078
 20
115.3416013561218
 10
130.5353119637099
 20
115.3238591146348
 10
130.5530434392737
 20
115.3077209957094
 10
130.57228214409
 20
115.2933269563477
 10
130.5928665893104
 20
115.2808061876284
 10
130.6147106475489
 20
115.2702878806303
 10
130.6376528299572
 20
115.2618796945858
 10
130.6615854773029
 20
115.2557215864969
 10
130.6863901644303
 20
115.2519427474423
 10
130.7119269343376
 20
115.2506508366544
 10
130.7119269343376
 20
115.2506508366544
 10
130.7375282997843
 20
115.2519427474423
 10
130.7623760506047
 20
115.2557323524201
 10
130.7863625275665
 20
115.2618796945858
 10
130.8093370077444
 20
115.2702878806303
 10
130.8312241296759
 20
115.2808061876284
 10
130.8518301067427
 20
115.2933269563477
 10
130.8710903434055
 20
115.3077209957094
 10
130.8888433508158
 20
115.3238591146348
 10
130.9049707038179
 20
115.341612122045
 10
130.9193647431796
 20
115.3608615927846
 10
130.9318855118989
 20
115.3814891016979
 10
130.942403818897
 20
115.4033546917829
 10
130.9508120049415
 20
115.4263399378841
 10
130.9569701130305
 20
115.4503264148459
 10
130.9607489520851
 20
115.4751741656663
 10
130.9620408628729
 20
115.500775531113
 10
130.9620408628729
 20
115.500775531113
 10
130.9607489520851
 20
115.5263123010203
 10
130.9569593471072
 20
115.5511062222245
 10
130.9508227708648
 20
115.5750496354934
 10
130.942403818897
 20
115.5979918179016
 10
130.9318747459757
 20
115.619825110217
 10
130.9193647431796
 20
115.6404203213606
 10
130.9049707038179
 20
115.6596482602537
 10
130.8888433508158
 20
115.6773905017407
 10
130.8710795774823
 20
115.6935070888196
 10
130.8518301067427
 20
115.7078795963349
 10
130.8312133637527
 20
115.7204003650541
 10
130.8093477736677
 20
115.7309186720522
 10
130.7863625275665
 20
115.7393160921735
 10
130.7623760506047
 20
115.7454742002624
 10
130.7375282997843
 20
115.749253039317
 10
130.7119269343376
 20
115.7505449501049
 10
130.7119269343376
 20
115.7505449501049
 10
130.6863901644303
 20
115.749253039317
 10
130.6615854773029
 20
115.7454742002624
 10
130.6376528299572
 20
115.7393160921735
 10
130.6147106475489
 20
115.7309186720522
 10
130.5928665893104
 20
115.7204003650541
 10
130.57228214409
 20
115.7078903622581
 10
130.5530542051969
 20
115.6935070888196
 10
130.5353119637099
 20
115.6773905017407
 10
130.5191846107078
 20
115.6596482602537
 10
130.5048121031925
 20
115.6404203213606
 10
130.4923021003964
 20
115.619825110217
 10
130.4817837933984
 20
115.5979918179016
 10
130.4733863732771
 20
115.5750496354934
 10
130.4672282651882
 20
115.5511062222245
 10
130.4634494261336
 20
115.5263123010203
 10
130.4621575153457
 20
115.500775531113
  0
HATCH
  5
82
330
1F
100
AcDbEntity
  8
レイヤー2
  6
Continuous
 62
   250
420
  2367521
370
    13
100
AcDbHatch
 10
0.0
 20
0.0
 30
0.0
210
0.0
220
0.0
230
1.0
  2
SOLID
 70
     1
 71
     0
 91
        1
 92
        3
 72
     0
 73
     1
 93
       67
 10
123.3935214690266
 20
122.1567214421642
 10
123.3948026138912
 20
122.1311739063337
 10
123.3985814529458
 20
122.1063692192062
 10
123.4047287951115
 20
122.0824150400141
 10
123.4130939174631
 20
122.0594513257594
 10
123.4235906926147
 20
122.0375857356743
 10
123.4360899294875
 20
122.0169689926843
 10
123.4504516710796
 20
121.9976979900982
 10
123.466546726312
 20
121.9799342167648
 10
123.4842782018758
 20
121.9637853319162
 10
123.5034846089224
 20
121.949369760708
 10
123.524079820066
 20
121.9368274601422
 10
123.5459238783046
 20
121.9262768553745
 10
123.5688875925593
 20
121.9178579034067
 10
123.5928525376746
 20
121.9116890293945
 10
123.617700288495
 20
121.9078886584935
 10
123.6432908880185
 20
121.9065967477056
 10
123.6432908880185
 20
121.9065967477056
 10
123.6688814875419
 20
121.9078886584935
 10
123.6937184724391
 20
121.9116890293945
 10
123.7176941834777
 20
121.9178686693299
 10
123.7406578977324
 20
121.9262768553745
 10
123.7624911900477
 20
121.9368274601422
 10
123.7830864011913
 20
121.949369760708
 10
123.8023035741612
 20
121.9637853319162
 10
123.8200242838017
 20
121.9799342167648
 10
123.8361301049574
 20
121.9977087560215
 10
123.8504810806262
 20
122.0169689926843
 10
123.862980317499
 20
122.0375857356743
 10
123.8734770926506
 20
122.0594513257594
 10
123.8818529809254
 20
122.0824258059373
 10
123.8879895571679
 20
122.1063692192062
 10
123.8917683962225
 20
122.1311846722569
 10
123.8930495410871
 20
122.1567214421642
 10
123.8930495410871
 20
122.1567214421642
 10
123.8917683962225
 20
122.1822689779947
 10
123.8879895571679
 20
122.2070736651222
 10
123.8818529809254
 20
122.2310278443143
 10
123.8734663267274
 20
122.253991558569
 10
123.862980317499
 20
122.2758463827308
 10
123.8504918465494
 20
122.2964846575673
 10
123.8361301049574
 20
122.3157341283069
 10
123.8200242838017
 20
122.3335086675636
 10
123.8023035741612
 20
122.3496683183354
 10
123.7830864011913
 20
122.3640731236204
 10
123.7624911900477
 20
122.3766154241861
 10
123.7406578977324
 20
122.3871660289539
 10
123.7176941834777
 20
122.3955849809216
 10
123.6937292383623
 20
122.4017538549338
 10
123.6688814875419
 20
122.4055542258348
 10
123.6432908880185
 20
122.4068461366227
 10
123.6432908880185
 20
122.4068461366227
 10
123.617700288495
 20
122.4055434599116
 10
123.5928525376746
 20
122.4017538549338
 10
123.5688983584825
 20
122.3955849809216
 10
123.5459238783046
 20
122.3871660289539
 10
123.5240905859892
 20
122.3766154241861
 10
123.5034953748457
 20
122.3640731236204
 10
123.4842674359526
 20
122.3496683183354
 10
123.466546726312
 20
122.3335086675636
 10
123.4504409051563
 20
122.3157448942301
 10
123.4360791635643
 20
122.2964738916441
 10
123.4236014585379
 20
122.2758463827308
 10
123.4131046833863
 20
122.253991558569
 10
123.4047180291883
 20
122.2310278443143
 10
123.3985814529458
 20
122.2070736651222
 10
123.3948026138912
 20
122.1822582120715
 97
        0
 75
     1
 76
     1
 98
        0
  0
LWPOLYLINE
  5
83
330
1F
100
AcDbEntity
  8
レイヤー2
  6
Continuous
 62
   250
420
  2367521
370
    13
100
AcDbPolyline
 90
       68
 70
     0
 43
0.0
 10
123.3935214690266
 20
122.1567214421642
 10
123.3948026138912
 20
122.1311739063337
 10
123.3985814529458
 20
122.1063692192062
 10
123.4047287951115
 20
122.0824150400141
 10
123.4130939174631
 20
122.0594513257594
 10
123.4235906926147
 20
122.0375857356743
 10
123.4360899294875
 20
122.0169689926843
 10
123.4504516710796
 20
121.9976979900982
 10
123.466546726312
 20
121.9799342167648
 10
123.4842782018758
 20
121.9637853319162
 10
123.5034846089224
 20
121.949369760708
 10
123.524079820066
 20
121.9368274601422
 10
123.5459238783046
 20
121.9262768553745
 10
123.5688875925593
 20
121.9178579034067
 10
123.5928525376746
 20
121.9116890293945
 10
123.617700288495
 20
121.9078886584935
 10
123.6432908880185
 20
121.9065967477056
 10
123.6432908880185
 20
121.9065967477056
 10
123.6688814875419
 20
121.9078886584935
 10
123.6937184724391
 20
121.9116890293945
 10
123.7176941834777
 20
121.9178686693299
 10
123.7406578977324
 20
121.9262768553745
 10
123.7624911900477
 20
121.9368274601422
 10
123.7830864011913
 20
121.949369760708
 10
123.8023035741612
 20
121.9637853319162
 10
123.8200242838017
 20
121.9799342167648
 10
123.8361301049574
 20
121.9977087560215
 10
123.8504810806262
 20
122.0169689926843
 10
123.862980317499
 20
122.0375857356743
 10
123.8734770926506
 20
122.0594513257594
 10
123.8818529809254
 20
122.0824258059373
 10
123.8879895571679
 20
122.1063692192062
 10
123.8917683962225
 20
122.1311846722569
 10
123.8930495410871
 20
122.1567214421642
 10
123.8930495410871
 20
122.1567214421642
 10
123.8917683962225
 20
122.1822689779947
 10
123.8879895571679
 20
122.2070736651222
 10
123.8818529809254
 20
122.2310278443143
 10
123.8734663267274
 20
122.253991558569
 10
123.862980317499
 20
122.2758463827308
 10
123.8504918465494
 20
122.2964846575673
 10
123.8361301049574
 20
122.3157341283069
 10
123.8200242838017
 20
122.3335086675636
 10
123.8023035741612
 20
122.3496683183354
 10
123.7830864011913
 20
122.3640731236204
 10
123.7624911900477
 20
122.3766154241861
 10
123.7406578977324
 20
122.3871660289539
 10
123.7176941834777
 20
122.3955849809216
 10
123.6937292383623
 20
122.4017538549338
 10
123.6688814875419
 20
122.4055542258348
 10
123.6432908880185
 20
122.4068461366227
 10
123.6432908880185
 20
122.4068461366227
 10
123.617700288495
 20
122.4055434599116
 10
123.5928525376746
 20
122.4017538549338
 10
123.5688983584825
 20
122.3955849809216
 10
123.5459238783046
 20
122.3871660289539
 10
123.5240905859892
 20
122.3766154241861
 10
123.5034953748457
 20
122.3640731236204
 10
123.4842674359526
 20
122.3496683183354
 10
123.466546726312
 20
122.3335086675636
 10
123.4504409051563
 20
122.3157448942301
 10
123.4360791635643
 20
122.2964738916441
 10
123.4236014585379
 20
122.2758463827308
 10
123.4131046833863
 20
122.253991558569
 10
123.4047180291883
 20
122.2310278443143
 10
123.3985814529458
 20
122.2070736651222
 10
123.3948026138912
 20
122.1822582120715
 10
123.3935214690266
 20
122.1567214421642
  0
HATCH
  5
84
330
1F
100
AcDbEntity
  8
レイヤー2
  6
Continuous
 62
   250
420
  2367521
370
    13
100
AcDbHatch
 10
0.0
 20
0.0
 30
0.0
210
0.0
220
0.0
230
1.0
  2
SOLID
 70
     1
 71
     0
 91
        1
 92
        3
 72
     0
 73
     1
 93
       67
 10
118.6130962783702
 20
122.1567214421642
 10
118.6143881891581
 20
122.1311739063337
 10
118.6181885600591
 20
122.1063692192062
 10
118.6243574340713
 20
122.0824150400141
 10
118.632776386039
 20
122.0594513257594
 10
118.6433269908068
 20
122.0375857356743
 10
118.6558692913726
 20
122.0169689926843
 10
118.6702740966575
 20
121.9976979900982
 10
118.6864229815061
 20
121.9799342167648
 10
118.7042082866861
 20
121.9637853319162
 10
118.7234577574256
 20
121.949369760708
 10
118.7440852663389
 20
121.9368274601422
 10
118.7659400905007
 20
121.9262768553745
 10
118.7889145706787
 20
121.9178579034067
 10
118.8128687498708
 20
121.9116890293945
 10
118.8376842029215
 20
121.9078886584935
 10
118.8632209728288
 20
121.9065967477056
 10
118.8632209728288
 20
121.9065967477056
 10
118.888757742736
 20
121.9078886584935
 10
118.9135731957867
 20
121.9116890293945
 10
118.9375273749789
 20
121.9178686693299
 10
118.9604910892336
 20
121.9262768553745
 10
118.9823459133954
 20
121.9368274601422
 10
119.0029734223087
 20
121.949369760708
 10
119.0222336589714
 20
121.9637853319162
 10
119.0399974323049
 20
121.9799342167648
 10
119.0561463171535
 20
121.9977087560215
 10
119.0705618883617
 20
122.0169689926843
 10
119.0831041889275
 20
122.0375857356743
 10
119.0936547936953
 20
122.0594513257594
 10
119.102073745663
 20
122.0824258059373
 10
119.1082426196752
 20
122.1063692192062
 10
119.1120429905762
 20
122.1311846722569
 10
119.1133349013641
 20
122.1567214421642
 10
119.1133349013641
 20
122.1567214421642
 10
119.112032224653
 20
122.1822689779947
 10
119.1082426196752
 20
122.2070736651222
 10
119.102073745663
 20
122.2310278443143
 10
119.0936547936953
 20
122.253991558569
 10
119.0831041889275
 20
122.2758463827308
 10
119.070572654285
 20
122.2964846575673
 10
119.0561570830768
 20
122.3157341283069
 10
119.0399974323049
 20
122.3335086675636
 10
119.0222336589714
 20
122.3496683183354
 10
119.0029734223087
 20
122.3640731236204
 10
118.9823566793186
 20
122.3766154241861
 10
118.9604910892336
 20
122.3871660289539
 10
118.9375273749789
 20
122.3955849809216
 10
118.9135731957867
 20
122.4017538549338
 10
118.888757742736
 20
122.4055542258348
 10
118.8632209728288
 20
122.4068461366227
 10
118.8632209728288
 20
122.4068461366227
 10
118.8376734369983
 20
122.4055434599116
 10
118.8128579839476
 20
122.4017538549338
 10
118.7889145706787
 20
122.3955849809216
 10
118.7659508564239
 20
122.3871660289539
 10
118.7440852663389
 20
122.3766154241861
 10
118.7234685233489
 20
122.3640731236204
 10
118.7041975207628
 20
122.3496683183354
 10
118.6864229815061
 20
122.3335086675636
 10
118.6702740966575
 20
122.3157448942301
 10
118.6558692913726
 20
122.2964738916441
 10
118.6433269908068
 20
122.2758463827308
 10
118.632776386039
 20
122.253991558569
 10
118.6243574340713
 20
122.2310278443143
 10
118.6181885600591
 20
122.2070736651222
 10
118.6143881891581
 20
122.1822582120715
 97
        0
 75
     1
 76
     1
 98
        0
  0
LWPOLYLINE
  5
85
330
1F
100
AcDbEntity
  8
レイヤー2
  6
Continuous
 62
   250
420
  2367521
370
    13
100
AcDbPolyline
 90
       68
 70
     0
 43
0.0
 10
118.6130962783702
 20
122.1567214421642
 10
118.6143881891581
 20
122.1311739063337
 10
118.6181885600591
 20
122.1063692192062
 10
118.6243574340713
 20
122.0824150400141
 10
118.632776386039
 20
122.0594513257594
 10
118.6433269908068
 20
122.0375857356743
 10
118.6558692913726
 20
122.0169689926843
 10
118.6702740966575
 20
121.9976979900982
 10
118.6864229815061
 20
121.9799342167648
 10
118.7042082866861
 20
121.9637853319162
 10
118.7234577574256
 20
121.949369760708
 10
118.7440852663389
 20
121.9368274601422
 10
118.7659400905007
 20
121.9262768553745
 10
118.7889145706787
 20
121.9178579034067
 10
118.8128687498708
 20
121.9116890293945
 10
118.8376842029215
 20
121.9078886584935
 10
118.8632209728288
 20
121.9065967477056
 10
118.8632209728288
 20
121.9065967477056
 10
118.888757742736
 20
121.9078886584935
 10
118.9135731957867
 20
121.9116890293945
 10
118.9375273749789
 20
121.9178686693299
 10
118.9604910892336
 20
121.9262768553745
 10
118.9823459133954
 20
121.9368274601422
 10
119.0029734223087
 20
121.949369760708
 10
119.0222336589714
 20
121.9637853319162
 10
119.0399974323049
 20
121.9799342167648
 10
119.0561463171535
 20
121.9977087560215
 10
119.0705618883617
 20
122.0169689926843
 10
119.0831041889275
 20
122.0375857356743
 10
119.0936547936953
 20
122.0594513257594
 10
119.102073745663
 20
122.0824258059373
 10
119.1082426196752
 20
122.1063692192062
 10
119.1120429905762
 20
122.1311846722569
 10
119.1133349013641
 20
122.1567214421642
 10
119.1133349013641
 20
122.1567214421642
 10
119.112032224653
 20
122.1822689779947
 10
119.1082426196752
 20
122.2070736651222
 10
119.102073745663
 20
122.2310278443143
 10
119.0936547936953
 20
122.253991558569
 10
119.0831041889275
 20
122.2758463827308
 10
119.070572654285
 20
122.2964846575673
 10
119.0561570830768
 20
122.3157341283069
 10
119.0399974323049
 20
122.3335086675636
 10
119.0222336589714
 20
122.3496683183354
 10
119.0029734223087
 20
122.3640731236204
 10
118.9823566793186
 20
122.3766154241861
 10
118.9604910892336
 20
122.3871660289539
 10
118.9375273749789
 20
122.3955849809216
 10
118.9135731957867
 20
122.4017538549338
 10
118.888757742736
 20
122.4055542258348
 10
118.8632209728288
 20
122.4068461366227
 10
118.8632209728288
 20
122.4068461366227
 10
118.8376734369983
 20
122.4055434599116
 10
118.8128579839476
 20
122.4017538549338
 10
118.7889145706787
 20
122.3955849809216
 10
118.7659508564239
 20
122.3871660289539
 10
118.7440852663389
 20
122.3766154241861
 10
118.7234685233489
 20
122.3640731236204
 10
118.7041975207628
 20
122.3496683183354
 10
118.6864229815061
 20
122.3335086675636
 10
118.6702740966575
 20
122.3157448942301
 10
118.6558692913726
 20
122.2964738916441
 10
118.6433269908068
 20
122.2758463827308
 10
118.632776386039
 20
122.253991558569
 10
118.6243574340713
 20
122.2310278443143
 10
118.6181885600591
 20
122.2070736651222
 10
118.6143881891581
 20
122.1822582120715
 10
118.6130962783702
 20
122.1567214421642
  0
HATCH
  5
86
330
1F
100
AcDbEntity
  8
レイヤー2
  6
Continuous
 62
   250
420
  2367521
370
    13
100
AcDbHatch
 10
0.0
 20
0.0
 30
0.0
210
0.0
220
0.0
230
1.0
  2
SOLID
 70
     1
 71
     0
 91
        1
 92
        3
 72
     0
 73
     1
 93
       67
 10
107.1040767266903
 20
115.500775531113
 10
107.105357871555
 20
115.4752387612057
 10
107.1091690083793
 20
115.450423308155
 10
107.1153378823914
 20
115.4264798948861
 10
107.1237568343592
 20
115.4035054147082
 10
107.1343074391269
 20
115.3816398246232
 10
107.1468497396927
 20
115.3610230816331
 10
107.1612545449777
 20
115.3417520790471
 10
107.1774034298263
 20
115.3239883057136
 10
107.195177969083
 20
115.307839420865
 10
107.214448971669
 20
115.2934238496568
 10
107.2350657146591
 20
115.280881549091
 10
107.2569313047441
 20
115.2703309443233
 10
107.2798950189988
 20
115.2619119923555
 10
107.3038491981909
 20
115.2557431183434
 10
107.3286646512416
 20
115.2519427474423
 10
107.3542014211489
 20
115.2506508366544
 10
107.3542014211489
 20
115.2506508366544
 10
107.3797381910562
 20
115.2519535133655
 10
107.4045536441069
 20
115.2557431183434
 10
107.4284970573758
 20
115.2619119923555
 10
107.4514715375537
 20
115.2703417102465
 10
107.4733371276387
 20
115.280881549091
 10
107.4939538706288
 20
115.2934238496568
 10
107.5132141072916
 20
115.3078286549418
 10
107.5309778806251
 20
115.3239883057136
 10
107.5471375313969
 20
115.3417628449703
 10
107.5615423366819
 20
115.3610230816331
 10
107.5740846372476
 20
115.3816398246232
 10
107.5846352420154
 20
115.4035054147082
 10
107.5930541939831
 20
115.4264691289629
 10
107.5992230679953
 20
115.450423308155
 10
107.6030234388963
 20
115.4752387612057
 10
107.6043153496842
 20
115.500775531113
 10
107.6043153496842
 20
115.500775531113
 10
107.6030234388963
 20
115.5263230669435
 10
107.5992338339185
 20
115.551127754071
 10
107.5930541939831
 20
115.5750819332631
 10
107.5846244760921
 20
115.598056413441
 10
107.5740846372476
 20
115.6199112376028
 10
107.5615531026051
 20
115.6405387465161
 10
107.5471375313969
 20
115.6597989831789
 10
107.5309778806251
 20
115.6775627565124
 10
107.5132141072916
 20
115.6937224072842
 10
107.4939538706288
 20
115.7081272125692
 10
107.4733263617155
 20
115.720669513135
 10
107.4514715375537
 20
115.7312093519795
 10
107.4284970573758
 20
115.7396390698705
 10
107.4045536441069
 20
115.7458079438826
 10
107.3797381910562
 20
115.7496083147837
 10
107.3542014211489
 20
115.7509002255716
 10
107.3542014211489
 20
115.7509002255716
 10
107.3286646512416
 20
115.7495975488604
 10
107.3038491981909
 20
115.7458079438826
 10
107.2798950189988
 20
115.7396390698705
 10
107.2569313047441
 20
115.7312093519795
 10
107.2350657146591
 20
115.720669513135
 10
107.2144382057458
 20
115.7081272125692
 10
107.195177969083
 20
115.693711641361
 10
107.1774034298263
 20
115.6775627565124
 10
107.1612653109009
 20
115.6597989831789
 10
107.1468389737695
 20
115.6405279805929
 10
107.1343074391269
 20
115.6199112376028
 10
107.1237568343592
 20
115.5980456475178
 10
107.1153378823914
 20
115.5750819332631
 10
107.1091690083793
 20
115.551127754071
 10
107.1053686374782
 20
115.5263123010203
 97
        0
 75
     1
 76
     1
 98
        0
  0
LWPOLYLINE
  5
87
330
1F
100
AcDbEntity
  8
レイヤー2
  6
Continuous
 62
   250
420
  2367521
370
    13
100
AcDbPolyline
 90
       68
 70
     0
 43
0.0
 10
107.1040767266903
 20
115.500775531113
 10
107.105357871555
 20
115.4752387612057
 10
107.1091690083793
 20
115.450423308155
 10
107.1153378823914
 20
115.4264798948861
 10
107.1237568343592
 20
115.4035054147082
 10
107.1343074391269
 20
115.3816398246232
 10
107.1468497396927
 20
115.3610230816331
 10
107.1612545449777
 20
115.3417520790471
 10
107.1774034298263
 20
115.3239883057136
 10
107.195177969083
 20
115.307839420865
 10
107.214448971669
 20
115.2934238496568
 10
107.2350657146591
 20
115.280881549091
 10
107.2569313047441
 20
115.2703309443233
 10
107.2798950189988
 20
115.2619119923555
 10
107.3038491981909
 20
115.2557431183434
 10
107.3286646512416
 20
115.2519427474423
 10
107.3542014211489
 20
115.2506508366544
 10
107.3542014211489
 20
115.2506508366544
 10
107.3797381910562
 20
115.2519535133655
 10
107.4045536441069
 20
115.2557431183434
 10
107.4284970573758
 20
115.2619119923555
 10
107.4514715375537
 20
115.2703417102465
 10
107.4733371276387
 20
115.280881549091
 10
107.4939538706288
 20
115.2934238496568
 10
107.5132141072916
 20
115.3078286549418
 10
107.5309778806251
 20
115.3239883057136
 10
107.5471375313969
 20
115.3417628449703
 10
107.5615423366819
 20
115.3610230816331
 10
107.5740846372476
 20
115.3816398246232
 10
107.5846352420154
 20
115.4035054147082
 10
107.5930541939831
 20
115.4264691289629
 10
107.5992230679953
 20
115.450423308155
 10
107.6030234388963
 20
115.4752387612057
 10
107.6043153496842
 20
115.500775531113
 10
107.6043153496842
 20
115.500775531113
 10
107.6030234388963
 20
115.5263230669435
 10
107.5992338339185
 20
115.551127754071
 10
107.5930541939831
 20
115.5750819332631
 10
107.5846244760921
 20
115.598056413441
 10
107.5740846372476
 20
115.6199112376028
 10
107.5615531026051
 20
115.6405387465161
 10
107.5471375313969
 20
115.6597989831789
 10
107.5309778806251
 20
115.6775627565124
 10
107.5132141072916
 20
115.6937224072842
 10
107.4939538706288
 20
115.7081272125692
 10
107.4733263617155
 20
115.720669513135
 10
107.4514715375537
 20
115.7312093519795
 10
107.4284970573758
 20
115.7396390698705
 10
107.4045536441069
 20
115.7458079438826
 10
107.3797381910562
 20
115.7496083147837
 10
107.3542014211489
 20
115.7509002255716
 10
107.3542014211489
 20
115.7509002255716
 10
107.3286646512416
 20
115.7495975488604
 10
107.3038491981909
 20
115.7458079438826
 10
107.2798950189988
 20
115.7396390698705
 10
107.2569313047441
 20
115.7312093519795
 10
107.2350657146591
 20
115.720669513135
 10
107.2144382057458
 20
115.7081272125692
 10
107.195177969083
 20
115.693711641361
 10
107.1774034298263
 20
115.6775627565124
 10
107.1612653109009
 20
115.6597989831789
 10
107.1468389737695
 20
115.6405279805929
 10
107.1343074391269
 20
115.6199112376028
 10
107.1237568343592
 20
115.5980456475178
 10
107.1153378823914
 20
115.5750819332631
 10
107.1091690083793
 20
115.551127754071
 10
107.1053686374782
 20
115.5263123010203
 10
107.1040767266903
 20
115.500775531113
  0
HATCH
  5
88
330
1F
100
AcDbEntity
  8
レイヤー2
  6
Continuous
 62
   250
420
  2367521
370
    13
100
AcDbHatch
 10
0.0
 20
0.0
 30
0.0
210
0.0
220
0.0
230
1.0
  2
SOLID
 70
     1
 71
     0
 91
        1
 92
        3
 72
     0
 73
     1
 93
       67
 10
107.1040767266903
 20
89.63758283143156
 10
107.105357871555
 20
89.61204606152427
 10
107.1091690083793
 20
89.58723060847356
 10
107.1153378823914
 20
89.56327642928146
 10
107.1237568343592
 20
89.54031271502673
 10
107.1343074391269
 20
89.51845250790333
 10
107.1468497396927
 20
89.49782499899003
 10
107.1612545449777
 20
89.47856476232724
 10
107.1774034298263
 20
89.46079560603215
 10
107.195177969083
 20
89.44464133822193
 10
107.214448971669
 20
89.43023653293696
 10
107.2350657146591
 20
89.4176942323712
 10
107.2569313047441
 20
89.40714901056506
 10
107.2798950189988
 20
89.39872467563569
 10
107.3038491981909
 20
89.39255580162353
 10
107.3286646512416
 20
89.38875543072248
 10
107.3542014211489
 20
89.3874635199346
 10
107.3542014211489
 20
89.3874635199346
 10
107.3797381910562
 20
89.38875543072248
 10
107.4045536441069
 20
89.39255580162353
 10
107.4284970573758
 20
89.39872467563569
 10
107.4514715375537
 20
89.40714362760345
 10
107.4733371276387
 20
89.4176942323712
 10
107.4939538706288
 20
89.43023114997536
 10
107.5132141072916
 20
89.44464133822193
 10
107.5309778806251
 20
89.46079560603215
 10
107.5471375313969
 20
89.47856476232724
 10
107.5615423366819
 20
89.49783038195164
 10
107.5740846372476
 20
89.5184471249417
 10
107.5846352420154
 20
89.54030733206511
 10
107.5930541939831
 20
89.56327642928146
 10
107.5992230679953
 20
89.58723060847356
 10
107.6030234388963
 20
89.61204067856266
 10
107.6043153496842
 20
89.63758283143156
 10
107.6043153496842
 20
89.63758283143156
 10
107.6030234388963
 20
89.66312498430044
 10
107.5992338339185
 20
89.68792967142791
 10
107.5930541939831
 20
89.71188923358164
 10
107.5846244760921
 20
89.73485833079798
 10
107.5740846372476
 20
89.75671853792139
 10
107.5615531026051
 20
89.77733528091144
 10
107.5471375313969
 20
89.79660090053585
 10
107.5309778806251
 20
89.81437005683094
 10
107.5132141072916
 20
89.83052432464117
 10
107.4939538706288
 20
89.84493451288776
 10
107.4733263617155
 20
89.8574714304919
 10
107.4514715375537
 20
89.86802203525966
 10
107.4284970573758
 20
89.8764409872274
 10
107.4045536441069
 20
89.88260986123956
 10
107.3797381910562
 20
89.8864102321406
 10
107.3542014211489
 20
89.8877021429285
 10
107.3542014211489
 20
89.8877021429285
 10
107.3286646512416
 20
89.8864102321406
 10
107.3038491981909
 20
89.88261524420119
 10
107.2798950189988
 20
89.8764409872274
 10
107.2569313047441
 20
89.86801665229804
 10
107.2350657146591
 20
89.8574768134535
 10
107.2144382057458
 20
89.84493451288776
 10
107.195177969083
 20
89.83052432464117
 10
107.1774034298263
 20
89.81437005683094
 10
107.1612653109009
 20
89.79660090053585
 10
107.1468389737695
 20
89.77734066387308
 10
107.1343074391269
 20
89.75671315495978
 10
107.1237568343592
 20
89.73485294783637
 10
107.1153378823914
 20
89.71188385062001
 10
107.1091690083793
 20
89.68793505438953
 10
107.1053686374782
 20
89.66312498430044
 97
        0
 75
     1
 76
     1
 98
        0
  0
LWPOLYLINE
  5
89
330
1F
100
AcDbEntity
  8
レイヤー2
  6
Continuous
 62
   250
420
  2367521
370
    13
100
AcDbPolyline
 90
       68
 70
     0
 43
0.0
 10
107.1040767266903
 20
89.63758283143156
 10
107.105357871555
 20
89.61204606152427
 10
107.1091690083793
 20
89.58723060847356
 10
107.1153378823914
 20
89.56327642928146
 10
107.1237568343592
 20
89.54031271502673
 10
107.1343074391269
 20
89.51845250790333
 10
107.1468497396927
 20
89.49782499899003
 10
107.1612545449777
 20
89.47856476232724
 10
107.1774034298263
 20
89.46079560603215
 10
107.195177969083
 20
89.44464133822193
 10
107.214448971669
 20
89.43023653293696
 10
107.2350657146591
 20
89.4176942323712
 10
107.2569313047441
 20
89.40714901056506
 10
107.2798950189988
 20
89.39872467563569
 10
107.3038491981909
 20
89.39255580162353
 10
107.3286646512416
 20
89.38875543072248
 10
107.3542014211489
 20
89.3874635199346
 10
107.3542014211489
 20
89.3874635199346
 10
107.3797381910562
 20
89.38875543072248
 10
107.4045536441069
 20
89.39255580162353
 10
107.4284970573758
 20
89.39872467563569
 10
107.4514715375537
 20
89.40714362760345
 10
107.4733371276387
 20
89.4176942323712
 10
107.4939538706288
 20
89.43023114997536
 10
107.5132141072916
 20
89.44464133822193
 10
107.5309778806251
 20
89.46079560603215
 10
107.5471375313969
 20
89.47856476232724
 10
107.5615423366819
 20
89.49783038195164
 10
107.5740846372476
 20
89.5184471249417
 10
107.5846352420154
 20
89.54030733206511
 10
107.5930541939831
 20
89.56327642928146
 10
107.5992230679953
 20
89.58723060847356
 10
107.6030234388963
 20
89.61204067856266
 10
107.6043153496842
 20
89.63758283143156
 10
107.6043153496842
 20
89.63758283143156
 10
107.6030234388963
 20
89.66312498430044
 10
107.5992338339185
 20
89.68792967142791
 10
107.5930541939831
 20
89.71188923358164
 10
107.5846244760921
 20
89.73485833079798
 10
107.5740846372476
 20
89.75671853792139
 10
107.5615531026051
 20
89.77733528091144
 10
107.5471375313969
 20
89.79660090053585
 10
107.5309778806251
 20
89.81437005683094
 10
107.5132141072916
 20
89.83052432464117
 10
107.4939538706288
 20
89.84493451288776
 10
107.4733263617155
 20
89.8574714304919
 10
107.4514715375537
 20
89.86802203525966
 10
107.4284970573758
 20
89.8764409872274
 10
107.4045536441069
 20
89.88260986123956
 10
107.3797381910562
 20
89.8864102321406
 10
107.3542014211489
 20
89.8877021429285
 10
107.3542014211489
 20
89.8877021429285
 10
107.3286646512416
 20
89.8864102321406
 10
107.3038491981909
 20
89.88261524420119
 10
107.2798950189988
 20
89.8764409872274
 10
107.2569313047441
 20
89.86801665229804
 10
107.2350657146591
 20
89.8574768134535
 10
107.2144382057458
 20
89.84493451288776
 10
107.195177969083
 20
89.83052432464117
 10
107.1774034298263
 20
89.81437005683094
 10
107.1612653109009
 20
89.79660090053585
 10
107.1468389737695
 20
89.77734066387308
 10
107.1343074391269
 20
89.75671315495978
 10
107.1237568343592
 20
89.73485294783637
 10
107.1153378823914
 20
89.71188385062001
 10
107.1091690083793
 20
89.68793505438953
 10
107.1053686374782
 20
89.66312498430044
 10
107.1040767266903
 20
89.63758283143156
  0
HATCH
  5
8A
330
1F
100
AcDbEntity
  8
レイヤー2
  6
Continuous
 62
   250
420
  2367521
370
    13
100
AcDbHatch
 10
0.0
 20
0.0
 30
0.0
210
0.0
220
0.0
230
1.0
  2
SOLID
 70
     1
 71
     0
 91
        1
 92
        3
 72
     0
 73
     1
 93
       67
 10
118.6712968593646
 20
82.97890237587934
 10
118.6725887701525
 20
82.95336560597207
 10
118.6763783751303
 20
82.92855015292136
 10
118.6825580150657
 20
82.90459597372924
 10
118.6909769670334
 20
82.88163225947451
 10
118.7015275718012
 20
82.85977205235112
 10
118.714069872367
 20
82.83914454343781
 10
118.7284746776519
 20
82.81988430677504
 10
118.7446343284238
 20
82.80211515047995
 10
118.7624088676805
 20
82.78596088266971
 10
118.78165833842
 20
82.77155607738476
 10
118.8022858473333
 20
82.75901377681899
 10
118.8241406714951
 20
82.74846855501286
 10
118.8471151516731
 20
82.74004422008349
 10
118.8710693308652
 20
82.73387534607133
 10
118.8958847839159
 20
82.73007497517028
 10
118.9214215538232
 20
82.72878306438238
 10
118.9214215538232
 20
82.72878306438238
 10
118.9469583237304
 20
82.73007497517028
 10
118.9717737767811
 20
82.73387534607133
 10
118.9957279559733
 20
82.74004422008349
 10
119.018691670228
 20
82.74846317205123
 10
119.0405464943898
 20
82.75901377681899
 10
119.0611740033031
 20
82.77155069442314
 10
119.0804342399658
 20
82.78596088266971
 10
119.0981980132993
 20
82.80211515047995
 10
119.1143576640712
 20
82.81988430677504
 10
119.1287732352794
 20
82.83914992639944
 10
119.1413047699219
 20
82.8597666693895
 10
119.1518553746897
 20
82.88162687651291
 10
119.1602743266574
 20
82.90459597372924
 10
119.1664432006696
 20
82.92855015292136
 10
119.1702435715706
 20
82.95336022301045
 10
119.1715354823585
 20
82.97890237587934
 10
119.1715354823585
 20
82.97890237587934
 10
119.1702435715706
 20
83.00444452874822
 10
119.1664432006696
 20
83.0292492158757
 10
119.1602743266574
 20
83.05320877802943
 10
119.1518553746897
 20
83.07617787524578
 10
119.1413047699219
 20
83.09803808236919
 10
119.1287732352794
 20
83.11865482535924
 10
119.1143576640712
 20
83.13792044498365
 10
119.0981980132993
 20
83.15568960127874
 10
119.0804342399658
 20
83.17184386908897
 10
119.0611740033031
 20
83.18625405733555
 10
119.0405464943898
 20
83.19879097493968
 10
119.018691670228
 20
83.20934157970746
 10
118.9957279559733
 20
83.2177605316752
 10
118.9717737767811
 20
83.22392940568736
 10
118.9469583237304
 20
83.2277297765884
 10
118.9214215538232
 20
83.22902168737629
 10
118.9214215538232
 20
83.22902168737629
 10
118.8958847839159
 20
83.2277297765884
 10
118.8710693308652
 20
83.22393478864898
 10
118.8471151516731
 20
83.2177605316752
 10
118.8241406714951
 20
83.20933619674582
 10
118.8022858473333
 20
83.1987963579013
 10
118.78165833842
 20
83.18625405733555
 10
118.7623981017572
 20
83.17184386908897
 10
118.7446343284238
 20
83.15568960127874
 10
118.7284746776519
 20
83.13792044498365
 10
118.714069872367
 20
83.11866020832086
 10
118.7015275718012
 20
83.09803269940757
 10
118.6909769670334
 20
83.07617249228416
 10
118.6825580150657
 20
83.05320339506781
 10
118.6763891410535
 20
83.02925459883733
 10
118.6725887701525
 20
83.00444452874822
 97
        0
 75
     1
 76
     1
 98
        0
  0
LWPOLYLINE
  5
8B
330
1F
100
AcDbEntity
  8
レイヤー2
  6
Continuous
 62
   250
420
  2367521
370
    13
100
AcDbPolyline
 90
       68
 70
     0
 43
0.0
 10
118.6712968593646
 20
82.97890237587934
 10
118.6725887701525
 20
82.95336560597207
 10
118.6763783751303
 20
82.92855015292136
 10
118.6825580150657
 20
82.90459597372924
 10
118.6909769670334
 20
82.88163225947451
 10
118.7015275718012
 20
82.85977205235112
 10
118.714069872367
 20
82.83914454343781
 10
118.7284746776519
 20
82.81988430677504
 10
118.7446343284238
 20
82.80211515047995
 10
118.7624088676805
 20
82.78596088266971
 10
118.78165833842
 20
82.77155607738476
 10
118.8022858473333
 20
82.75901377681899
 10
118.8241406714951
 20
82.74846855501286
 10
118.8471151516731
 20
82.74004422008349
 10
118.8710693308652
 20
82.73387534607133
 10
118.8958847839159
 20
82.73007497517028
 10
118.9214215538232
 20
82.72878306438238
 10
118.9214215538232
 20
82.72878306438238
 10
118.9469583237304
 20
82.73007497517028
 10
118.9717737767811
 20
82.73387534607133
 10
118.9957279559733
 20
82.74004422008349
 10
119.018691670228
 20
82.74846317205123
 10
119.0405464943898
 20
82.75901377681899
 10
119.0611740033031
 20
82.77155069442314
 10
119.0804342399658
 20
82.78596088266971
 10
119.0981980132993
 20
82.80211515047995
 10
119.1143576640712
 20
82.81988430677504
 10
119.1287732352794
 20
82.83914992639944
 10
119.1413047699219
 20
82.8597666693895
 10
119.1518553746897
 20
82.88162687651291
 10
119.1602743266574
 20
82.90459597372924
 10
119.1664432006696
 20
82.92855015292136
 10
119.1702435715706
 20
82.95336022301045
 10
119.1715354823585
 20
82.97890237587934
 10
119.1715354823585
 20
82.97890237587934
 10
119.1702435715706
 20
83.00444452874822
 10
119.1664432006696
 20
83.0292492158757
 10
119.1602743266574
 20
83.05320877802943
 10
119.1518553746897
 20
83.07617787524578
 10
119.1413047699219
 20
83.09803808236919
 10
119.1287732352794
 20
83.11865482535924
 10
119.1143576640712
 20
83.13792044498365
 10
119.0981980132993
 20
83.15568960127874
 10
119.0804342399658
 20
83.17184386908897
 10
119.0611740033031
 20
83.18625405733555
 10
119.0405464943898
 20
83.19879097493968
 10
119.018691670228
 20
83.20934157970746
 10
118.9957279559733
 20
83.2177605316752
 10
118.9717737767811
 20
83.22392940568736
 10
118.9469583237304
 20
83.2277297765884
 10
118.9214215538232
 20
83.22902168737629
 10
118.9214215538232
 20
83.22902168737629
 10
118.8958847839159
 20
83.2277297765884
 10
118.8710693308652
 20
83.22393478864898
 10
118.8471151516731
 20
83.2177605316752
 10
118.8241406714951
 20
83.20933619674582
 10
118.8022858473333
 20
83.1987963579013
 10
118.78165833842
 20
83.18625405733555
 10
118.7623981017572
 20
83.17184386908897
 10
118.7446343284238
 20
83.15568960127874
 10
118.7284746776519
 20
83.13792044498365
 10
118.714069872367
 20
83.11866020832086
 10
118.7015275718012
 20
83.09803269940757
 10
118.6909769670334
 20
83.07617249228416
 10
118.6825580150657
 20
83.05320339506781
 10
118.6763891410535
 20
83.02925459883733
 10
118.6725887701525
 20
83.00444452874822
 10
118.6712968593646
 20
82.97890237587934
  0
HATCH
  5
8C
330
1F
100
AcDbEntity
  8
レイヤー2
  6
Continuous
 62
   250
420
  2367521
370
    13
100
AcDbHatch
 10
0.0
 20
0.0
 30
0.0
210
0.0
220
0.0
230
1.0
  2
SOLID
 70
     1
 71
     0
 91
        1
 92
        3
 72
     0
 73
     1
 93
       67
 10
119.5752899013435
 20
82.97890237587934
 10
119.5765710462082
 20
82.95336560597207
 10
119.580360651186
 20
82.92855015292136
 10
119.586518759275
 20
82.90459597372924
 10
119.5949269453195
 20
82.88163225947451
 10
119.6054560182408
 20
82.85977205235112
 10
119.6179660210368
 20
82.83914454343781
 10
119.6323492944753
 20
82.81988430677504
 10
119.6484874134007
 20
82.80211515047995
 10
119.6662404208109
 20
82.78596088266971
 10
119.6855006574737
 20
82.77155607738476
 10
119.7061174004638
 20
82.75901377681899
 10
119.7279829905488
 20
82.74846855501286
 10
119.7509790025732
 20
82.74004422008349
 10
119.774965479535
 20
82.73387534607133
 10
119.7998132303554
 20
82.73007497517028
 10
119.8254145958021
 20
82.72878306438238
 10
119.8254145958021
 20
82.72878306438238
 10
119.8509405997862
 20
82.73007497517028
 10
119.8757560528368
 20
82.73387534607133
 10
119.8996887001825
 20
82.74004422008349
 10
119.922641648514
 20
82.74846317205123
 10
119.9444641749061
 20
82.75901377681899
 10
119.9650486201265
 20
82.77155069442314
 10
119.9842873249428
 20
82.78596088266971
 10
120.0020188005065
 20
82.80211515047995
 10
120.0181353875855
 20
82.81988430677504
 10
120.032518661024
 20
82.83914992639944
 10
120.04502866382
 20
82.8597666693895
 10
120.0555469708181
 20
82.88162687651291
 10
120.0639443909394
 20
82.90459597372924
 10
120.0701024990283
 20
82.92855015292136
 10
120.0738813380829
 20
82.95336022301045
 10
120.0751732488708
 20
82.97890237587934
 10
120.0751732488708
 20
82.97890237587934
 10
120.0738813380829
 20
83.00444452874822
 10
120.0700917331051
 20
83.0292492158757
 10
120.0639336250161
 20
83.05320877802943
 10
120.0555469708181
 20
83.07617787524578
 10
120.0450394297433
 20
83.09803808236919
 10
120.032518661024
 20
83.11865482535924
 10
120.0181353875855
 20
83.13792044498365
 10
120.0020188005065
 20
83.15568960127874
 10
119.9842765590195
 20
83.17184386908897
 10
119.9650593860497
 20
83.18625405733555
 10
119.9444641749061
 20
83.19879097493968
 10
119.9226308825908
 20
83.20934157970746
 10
119.8996779342593
 20
83.2177605316752
 10
119.8757452869136
 20
83.22392940568736
 10
119.8509513657094
 20
83.2277297765884
 10
119.8254145958021
 20
83.22902168737629
 10
119.8254145958021
 20
83.22902168737629
 10
119.7998132303554
 20
83.2277297765884
 10
119.774965479535
 20
83.22393478864898
 10
119.7509790025732
 20
83.2177605316752
 10
119.7279829905488
 20
83.20933619674582
 10
119.706128166387
 20
83.1987963579013
 10
119.6855006574737
 20
83.18625405733555
 10
119.6662511867342
 20
83.17184386908897
 10
119.6484981793239
 20
83.15568960127874
 10
119.6323492944753
 20
83.13792044498365
 10
119.6179660210368
 20
83.11866020832086
 10
119.6054452523175
 20
83.09803269940757
 10
119.5949269453195
 20
83.07617249228416
 10
119.586518759275
 20
83.05320339506781
 10
119.580360651186
 20
83.02925459883733
 10
119.5765818121314
 20
83.00444452874822
 97
        0
 75
     1
 76
     1
 98
        0
  0
LWPOLYLINE
  5
8D
330
1F
100
AcDbEntity
  8
レイヤー2
  6
Continuous
 62
   250
420
  2367521
370
    13
100
AcDbPolyline
 90
       68
 70
     0
 43
0.0
 10
119.5752899013435
 20
82.97890237587934
 10
119.5765710462082
 20
82.95336560597207
 10
119.580360651186
 20
82.92855015292136
 10
119.586518759275
 20
82.90459597372924
 10
119.5949269453195
 20
82.88163225947451
 10
119.6054560182408
 20
82.85977205235112
 10
119.6179660210368
 20
82.83914454343781
 10
119.6323492944753
 20
82.81988430677504
 10
119.6484874134007
 20
82.80211515047995
 10
119.6662404208109
 20
82.78596088266971
 10
119.6855006574737
 20
82.77155607738476
 10
119.7061174004638
 20
82.75901377681899
 10
119.7279829905488
 20
82.74846855501286
 10
119.7509790025732
 20
82.74004422008349
 10
119.774965479535
 20
82.73387534607133
 10
119.7998132303554
 20
82.73007497517028
 10
119.8254145958021
 20
82.72878306438238
 10
119.8254145958021
 20
82.72878306438238
 10
119.8509405997862
 20
82.73007497517028
 10
119.8757560528368
 20
82.73387534607133
 10
119.8996887001825
 20
82.74004422008349
 10
119.922641648514
 20
82.74846317205123
 10
119.9444641749061
 20
82.75901377681899
 10
119.9650486201265
 20
82.77155069442314
 10
119.9842873249428
 20
82.78596088266971
 10
120.0020188005065
 20
82.80211515047995
 10
120.0181353875855
 20
82.81988430677504
 10
120.032518661024
 20
82.83914992639944
 10
120.04502866382
 20
82.8597666693895
 10
120.0555469708181
 20
82.88162687651291
 10
120.0639443909394
 20
82.90459597372924
 10
120.0701024990283
 20
82.92855015292136
 10
120.0738813380829
 20
82.95336022301045
 10
120.0751732488708
 20
82.97890237587934
 10
120.0751732488708
 20
82.97890237587934
 10
120.0738813380829
 20
83.00444452874822
 10
120.0700917331051
 20
83.0292492158757
 10
120.0639336250161
 20
83.05320877802943
 10
120.0555469708181
 20
83.07617787524578
 10
120.0450394297433
 20
83.09803808236919
 10
120.032518661024
 20
83.11865482535924
 10
120.0181353875855
 20
83.13792044498365
 10
120.0020188005065
 20
83.15568960127874
 10
119.9842765590195
 20
83.17184386908897
 10
119.9650593860497
 20
83.18625405733555
 10
119.9444641749061
 20
83.19879097493968
 10
119.9226308825908
 20
83.20934157970746
 10
119.8996779342593
 20
83.2177605316752
 10
119.8757452869136
 20
83.22392940568736
 10
119.8509513657094
 20
83.2277297765884
 10
119.8254145958021
 20
83.22902168737629
 10
119.8254145958021
 20
83.22902168737629
 10
119.7998132303554
 20
83.2277297765884
 10
119.774965479535
 20
83.22393478864898
 10
119.7509790025732
 20
83.2177605316752
 10
119.7279829905488
 20
83.20933619674582
 10
119.706128166387
 20
83.1987963579013
 10
119.6855006574737
 20
83.18625405733555
 10
119.6662511867342
 20
83.17184386908897
 10
119.6484981793239
 20
83.15568960127874
 10
119.6323492944753
 20
83.13792044498365
 10
119.6179660210368
 20
83.11866020832086
 10
119.6054452523175
 20
83.09803269940757
 10
119.5949269453195
 20
83.07617249228416
 10
119.586518759275
 20
83.05320339506781
 10
119.580360651186
 20
83.02925459883733
 10
119.5765818121314
 20
83.00444452874822
 10
119.5752899013435
 20
82.97890237587934
  0
HATCH
  5
8E
330
1F
100
AcDbEntity
  8
レイヤー2
  6
Continuous
 62
   250
420
  2367521
370
    13
100
AcDbHatch
 10
0.0
 20
0.0
 30
0.0
210
0.0
220
0.0
230
1.0
  2
SOLID
 70
     1
 71
     0
 91
        1
 92
        3
 72
     0
 73
     1
 93
       67
 10
119.5752899013435
 20
77.99591633960517
 10
119.5765710462082
 20
77.9703795696979
 10
119.580360651186
 20
77.9455641166472
 10
119.586518759275
 20
77.92160993745509
 10
119.5949269453195
 20
77.89864622320036
 10
119.6054560182408
 20
77.87678601607695
 10
119.6179660210368
 20
77.85615850716366
 10
119.6323492944753
 20
77.83689827050088
 10
119.6484874134007
 20
77.81912911420578
 10
119.6662404208109
 20
77.80297484639556
 10
119.6855006574737
 20
77.78857004111059
 10
119.7061174004638
 20
77.77602774054483
 10
119.7279829905488
 20
77.76548251873868
 10
119.7509790025732
 20
77.75705818380933
 10
119.774965479535
 20
77.75088930979715
 10
119.7998132303554
 20
77.74708893889611
 10
119.8254145958021
 20
77.74579702810823
 10
119.8254145958021
 20
77.74579702810823
 10
119.8509405997862
 20
77.74708893889611
 10
119.8757560528368
 20
77.75088930979715
 10
119.8996887001825
 20
77.75705818380933
 10
119.922641648514
 20
77.76547713577708
 10
119.9444641749061
 20
77.77602774054483
 10
119.9650486201265
 20
77.78856465814897
 10
119.9842873249428
 20
77.80297484639556
 10
120.0020188005065
 20
77.81912911420578
 10
120.0181353875855
 20
77.83689827050088
 10
120.032518661024
 20
77.85616389012526
 10
120.04502866382
 20
77.87678063311533
 10
120.0555469708181
 20
77.89864084023874
 10
120.0639443909394
 20
77.92160993745509
 10
120.0701024990283
 20
77.9455641166472
 10
120.0738813380829
 20
77.97037418673628
 10
120.0751732488708
 20
77.99591633960517
 10
120.0751732488708
 20
77.99591633960517
 10
120.0738813380829
 20
78.02145849247407
 10
120.0700917331051
 20
78.04626317960154
 10
120.0639336250161
 20
78.07022274175526
 10
120.0555469708181
 20
78.0931918389716
 10
120.0450394297433
 20
78.11505204609502
 10
120.032518661024
 20
78.13566878908509
 10
120.0181353875855
 20
78.15493440870947
 10
120.0020188005065
 20
78.17270356500457
 10
119.9842765590195
 20
78.18885783281479
 10
119.9650593860497
 20
78.20326802106138
 10
119.9444641749061
 20
78.21580493866551
 10
119.9226308825908
 20
78.22635554343327
 10
119.8996779342593
 20
78.23477449540101
 10
119.8757452869136
 20
78.2409433694132
 10
119.8509513657094
 20
78.24474374031423
 10
119.8254145958021
 20
78.24603565110212
 10
119.8254145958021
 20
78.24603565110212
 10
119.7998132303554
 20
78.24474374031423
 10
119.774965479535
 20
78.2409487523748
 10
119.7509790025732
 20
78.23477449540101
 10
119.7279829905488
 20
78.22635016047167
 10
119.706128166387
 20
78.21581032162713
 10
119.6855006574737
 20
78.20326802106138
 10
119.6662511867342
 20
78.18885783281479
 10
119.6484981793239
 20
78.17270356500457
 10
119.6323492944753
 20
78.15493440870947
 10
119.6179660210368
 20
78.13567417204669
 10
119.6054452523175
 20
78.1150466631334
 10
119.5949269453195
 20
78.09318645600999
 10
119.586518759275
 20
78.07021735879366
 10
119.580360651186
 20
78.04626856256314
 10
119.5765818121314
 20
78.02145849247407
 97
        0
 75
     1
 76
     1
 98
        0
  0
LWPOLYLINE
  5
8F
330
1F
100
AcDbEntity
  8
レイヤー2
  6
Continuous
 62
   250
420
  2367521
370
    13
100
AcDbPolyline
 90
       68
 70
     0
 43
0.0
 10
119.5752899013435
 20
77.99591633960517
 10
119.5765710462082
 20
77.9703795696979
 10
119.580360651186
 20
77.9455641166472
 10
119.586518759275
 20
77.92160993745509
 10
119.5949269453195
 20
77.89864622320036
 10
119.6054560182408
 20
77.87678601607695
 10
119.6179660210368
 20
77.85615850716366
 10
119.6323492944753
 20
77.83689827050088
 10
119.6484874134007
 20
77.81912911420578
 10
119.6662404208109
 20
77.80297484639556
 10
119.6855006574737
 20
77.78857004111059
 10
119.7061174004638
 20
77.77602774054483
 10
119.7279829905488
 20
77.76548251873868
 10
119.7509790025732
 20
77.75705818380933
 10
119.774965479535
 20
77.75088930979715
 10
119.7998132303554
 20
77.74708893889611
 10
119.8254145958021
 20
77.74579702810823
 10
119.8254145958021
 20
77.74579702810823
 10
119.8509405997862
 20
77.74708893889611
 10
119.8757560528368
 20
77.75088930979715
 10
119.8996887001825
 20
77.75705818380933
 10
119.922641648514
 20
77.76547713577708
 10
119.9444641749061
 20
77.77602774054483
 10
119.9650486201265
 20
77.78856465814897
 10
119.9842873249428
 20
77.80297484639556
 10
120.0020188005065
 20
77.81912911420578
 10
120.0181353875855
 20
77.83689827050088
 10
120.032518661024
 20
77.85616389012526
 10
120.04502866382
 20
77.87678063311533
 10
120.0555469708181
 20
77.89864084023874
 10
120.0639443909394
 20
77.92160993745509
 10
120.0701024990283
 20
77.9455641166472
 10
120.0738813380829
 20
77.97037418673628
 10
120.0751732488708
 20
77.99591633960517
 10
120.0751732488708
 20
77.99591633960517
 10
120.0738813380829
 20
78.02145849247407
 10
120.0700917331051
 20
78.04626317960154
 10
120.0639336250161
 20
78.07022274175526
 10
120.0555469708181
 20
78.0931918389716
 10
120.0450394297433
 20
78.11505204609502
 10
120.032518661024
 20
78.13566878908509
 10
120.0181353875855
 20
78.15493440870947
 10
120.0020188005065
 20
78.17270356500457
 10
119.9842765590195
 20
78.18885783281479
 10
119.9650593860497
 20
78.20326802106138
 10
119.9444641749061
 20
78.21580493866551
 10
119.9226308825908
 20
78.22635554343327
 10
119.8996779342593
 20
78.23477449540101
 10
119.8757452869136
 20
78.2409433694132
 10
119.8509513657094
 20
78.24474374031423
 10
119.8254145958021
 20
78.24603565110212
 10
119.8254145958021
 20
78.24603565110212
 10
119.7998132303554
 20
78.24474374031423
 10
119.774965479535
 20
78.2409487523748
 10
119.7509790025732
 20
78.23477449540101
 10
119.7279829905488
 20
78.22635016047167
 10
119.706128166387
 20
78.21581032162713
 10
119.6855006574737
 20
78.20326802106138
 10
119.6662511867342
 20
78.18885783281479
 10
119.6484981793239
 20
78.17270356500457
 10
119.6323492944753
 20
78.15493440870947
 10
119.6179660210368
 20
78.13567417204669
 10
119.6054452523175
 20
78.1150466631334
 10
119.5949269453195
 20
78.09318645600999
 10
119.586518759275
 20
78.07021735879366
 10
119.580360651186
 20
78.04626856256314
 10
119.5765818121314
 20
78.02145849247407
 10
119.5752899013435
 20
77.99591633960517
  0
HATCH
  5
90
330
1F
100
AcDbEntity
  8
レイヤー2
  6
Continuous
 62
   250
420
  2367521
370
    13
100
AcDbHatch
 10
0.0
 20
0.0
 30
0.0
210
0.0
220
0.0
230
1.0
  2
SOLID
 70
     1
 71
     0
 91
        1
 92
        3
 72
     0
 73
     1
 93
       67
 10
122.3461801592081
 20
78.04347480548435
 10
122.347472069996
 20
78.01793265261546
 10
122.3512509090506
 20
77.99312796548799
 10
122.3574090171395
 20
77.96916840333425
 10
122.365817203184
 20
77.9461993061179
 10
122.3763355101821
 20
77.9243390989945
 10
122.3888670448246
 20
77.90371697304282
 10
122.4032503182631
 20
77.88445673638003
 10
122.4193776712653
 20
77.86668758008494
 10
122.4371414445987
 20
77.85053869523634
 10
122.4563909153383
 20
77.83612850698975
 10
122.4770076583284
 20
77.823586206424
 10
122.4988732484134
 20
77.81304098461786
 10
122.5218692604378
 20
77.80461664968848
 10
122.5458449714764
 20
77.7984423927147
 10
122.57070348822
 20
77.79464740477528
 10
122.5963048536667
 20
77.79335549398739
 10
122.5963048536667
 20
77.79335549398739
 10
122.621841623574
 20
77.79464740477528
 10
122.646624778855
 20
77.7984423927147
 10
122.6705789580471
 20
77.80461664968848
 10
122.6935103745321
 20
77.81304098461786
 10
122.7153436668474
 20
77.823586206424
 10
122.7359496439143
 20
77.83612850698975
 10
122.7551775828073
 20
77.85053869523634
 10
122.7729090583711
 20
77.86668758008494
 10
122.7890364113733
 20
77.88445673638003
 10
122.8034089188885
 20
77.90371697304282
 10
122.8159189216846
 20
77.9243390989945
 10
122.8264372286827
 20
77.9461993061179
 10
122.8348346488039
 20
77.96916840333425
 10
122.8409927568929
 20
77.99312258252635
 10
122.8447715959474
 20
78.01793265261546
 10
122.8460635067353
 20
78.04347480548435
 10
122.8460635067353
 20
78.04347480548435
 10
122.8447715959474
 20
78.06901157539161
 10
122.8409819909696
 20
78.09382702844232
 10
122.8348454147272
 20
78.11778120763444
 10
122.8264372286827
 20
78.14074492188917
 10
122.8159081557614
 20
78.16261051197418
 10
122.8034089188885
 20
78.18323263792587
 10
122.7890364113733
 20
78.20249287458864
 10
122.7729090583711
 20
78.22026203088373
 10
122.7551775828073
 20
78.23641629869397
 10
122.7359496439143
 20
78.25082648694055
 10
122.7153544327707
 20
78.26336340454469
 10
122.6935211404553
 20
78.27391400931245
 10
122.6705681921238
 20
78.28233296128019
 10
122.6466355447782
 20
78.28850721825398
 10
122.621841623574
 20
78.2923022061934
 10
122.5963048536667
 20
78.2935941169813
 10
122.5963048536667
 20
78.2935941169813
 10
122.5706927222968
 20
78.2923022061934
 10
122.5458557373996
 20
78.28850183529235
 10
122.5218692604378
 20
78.28232757831857
 10
122.4988840143366
 20
78.27391400931245
 10
122.4770076583284
 20
78.26336340454469
 10
122.4563801494151
 20
78.25082648694055
 10
122.4371306786755
 20
78.23641091573235
 10
122.4193884371885
 20
78.22026203088373
 10
122.4032503182631
 20
78.20249287458864
 10
122.3888562789014
 20
78.18323263792587
 10
122.3763355101821
 20
78.16260512901258
 10
122.365817203184
 20
78.14074492188917
 10
122.3574090171395
 20
78.11778120763444
 10
122.3512509090506
 20
78.09382702844232
 10
122.347472069996
 20
78.06901695835323
 97
        0
 75
     1
 76
     1
 98
        0
  0
LWPOLYLINE
  5
91
330
1F
100
AcDbEntity
  8
レイヤー2
  6
Continuous
 62
   250
420
  2367521
370
    13
100
AcDbPolyline
 90
       68
 70
     0
 43
0.0
 10
122.3461801592081
 20
78.04347480548435
 10
122.347472069996
 20
78.01793265261546
 10
122.3512509090506
 20
77.99312796548799
 10
122.3574090171395
 20
77.96916840333425
 10
122.365817203184
 20
77.9461993061179
 10
122.3763355101821
 20
77.9243390989945
 10
122.3888670448246
 20
77.90371697304282
 10
122.4032503182631
 20
77.88445673638003
 10
122.4193776712653
 20
77.86668758008494
 10
122.4371414445987
 20
77.85053869523634
 10
122.4563909153383
 20
77.83612850698975
 10
122.4770076583284
 20
77.823586206424
 10
122.4988732484134
 20
77.81304098461786
 10
122.5218692604378
 20
77.80461664968848
 10
122.5458449714764
 20
77.7984423927147
 10
122.57070348822
 20
77.79464740477528
 10
122.5963048536667
 20
77.79335549398739
 10
122.5963048536667
 20
77.79335549398739
 10
122.621841623574
 20
77.79464740477528
 10
122.646624778855
 20
77.7984423927147
 10
122.6705789580471
 20
77.80461664968848
 10
122.6935103745321
 20
77.81304098461786
 10
122.7153436668474
 20
77.823586206424
 10
122.7359496439143
 20
77.83612850698975
 10
122.7551775828073
 20
77.85053869523634
 10
122.7729090583711
 20
77.86668758008494
 10
122.7890364113733
 20
77.88445673638003
 10
122.8034089188885
 20
77.90371697304282
 10
122.8159189216846
 20
77.9243390989945
 10
122.8264372286827
 20
77.9461993061179
 10
122.8348346488039
 20
77.96916840333425
 10
122.8409927568929
 20
77.99312258252635
 10
122.8447715959474
 20
78.01793265261546
 10
122.8460635067353
 20
78.04347480548435
 10
122.8460635067353
 20
78.04347480548435
 10
122.8447715959474
 20
78.06901157539161
 10
122.8409819909696
 20
78.09382702844232
 10
122.8348454147272
 20
78.11778120763444
 10
122.8264372286827
 20
78.14074492188917
 10
122.8159081557614
 20
78.16261051197418
 10
122.8034089188885
 20
78.18323263792587
 10
122.7890364113733
 20
78.20249287458864
 10
122.7729090583711
 20
78.22026203088373
 10
122.7551775828073
 20
78.23641629869397
 10
122.7359496439143
 20
78.25082648694055
 10
122.7153544327707
 20
78.26336340454469
 10
122.6935211404553
 20
78.27391400931245
 10
122.6705681921238
 20
78.28233296128019
 10
122.6466355447782
 20
78.28850721825398
 10
122.621841623574
 20
78.2923022061934
 10
122.5963048536667
 20
78.2935941169813
 10
122.5963048536667
 20
78.2935941169813
 10
122.5706927222968
 20
78.2923022061934
 10
122.5458557373996
 20
78.28850183529235
 10
122.5218692604378
 20
78.28232757831857
 10
122.4988840143366
 20
78.27391400931245
 10
122.4770076583284
 20
78.26336340454469
 10
122.4563801494151
 20
78.25082648694055
 10
122.4371306786755
 20
78.23641091573235
 10
122.4193884371885
 20
78.22026203088373
 10
122.4032503182631
 20
78.20249287458864
 10
122.3888562789014
 20
78.18323263792587
 10
122.3763355101821
 20
78.16260512901258
 10
122.365817203184
 20
78.14074492188917
 10
122.3574090171395
 20
78.11778120763444
 10
122.3512509090506
 20
78.09382702844232
 10
122.347472069996
 20
78.06901695835323
 10
122.3461801592081
 20
78.04347480548435
  0
TEXT
  5
92
330
1F
100
AcDbEntity
  8
レイヤー2
  6
Continuous
 62
   250
420
  2367521
100
AcDbText
 10
133.3823570896799
 20
111.186665521951
 30
0.0
 40
2.150533301035563
  1
7
 50
90.00000250447816
 41
1.024999618530273
  7
MS Gothic
100
AcDbText
  0
TEXT
  5
93
330
1F
100
AcDbEntity
  8
レイヤー2
  6
Continuous
 62
   250
420
  2367521
100
AcDbText
 10
119.6128629734246
 20
123.2161130929204
 30
0.0
 40
2.150533301035563
  1
4.7
 41
0.9908901055653889
  7
MS Gothic
100
AcDbText
  0
TEXT
  5
94
330
1F
100
AcDbEntity
  8
レイヤー2
  6
Continuous
 62
   250
420
  2367521
100
AcDbText
 10
105.7694111848047
 20
101.095636485135
 30
0.0
 40
2.150533301035563
  1
26
 50
90.00000250447816
 41
0.9480018615722654
  7
MS Gothic
100
AcDbText
  0
TEXT
  5
95
330
1F
100
AcDbEntity
  8
レイヤー2
  6
Continuous
 62
   250
420
  2367521
100
AcDbText
 10
122.7137718420555
 20
82.25236193641925
 30
0.0
 40
2.150533301035563
  1
0.8
 41
0.7733332316080729
  7
MS Gothic
100
AcDbText
  0
TEXT
  5
96
330
1F
100
AcDbEntity
  8
レイヤー2
  6
Continuous
 62
   250
420
  2367521
100
AcDbText
 10
123.9047520996408
 20
77.26831545670669
 30
0.0
 40
2.150533301035563
  1
3.1
 41
0.7770004272460936
  7
MS Gothic
100
AcDbText
  0
LINE
  5
97
330
1F
100
AcDbEntity
  8
レイヤー3
  6
UserDefined01
 62
   140
420
    44526
370
    13
100
AcDbLine
 10
115.027074908887
 20
97.66052107899466
 30
0.0
 11
115.027074908887
 21
89.54663231196415
 31
0.0
  0
TEXT
  5
98
330
1F
100
AcDbEntity
  8
レイヤー3
  6
Continuous
 62
   140
420
    44526
100
AcDbText
 10
114.100279469247
 20
93.23444547038986
 30
0.0
 40
1.881716638406118
  1
8
 50
90.00000250447816
 41
1.097499302455357
  7
MS Gothic
100
AcDbText
  0
HATCH
  5
99
330
1F
100
AcDbEntity
  8
レイヤー3
  6
Continuous
 62
   140
420
    44526
370
    13
100
AcDbHatch
 10
0.0
 20
0.0
 30
0.0
210
0.0
220
0.0
230
1.0
  2
SOLID
 70
     1
 71
     0
 91
        1
 92
        3
 72
     0
 73
     1
 93
        3
 10
122.9642518119807
 20
98.65959875496225
 10
122.9635412610474
 20
96.92745860017668
 10
121.4653015544092
 20
97.79282350959774
 97
        0
 75
     1
 76
     1
 98
        0
  0
LWPOLYLINE
  5
9A
330
1F
100
AcDbEntity
  8
レイヤー3
  6
Continuous
 62
   140
420
    44526
370
    13
100
AcDbPolyline
 90
        4
 70
     0
 43
0.0
 10
122.9642518119807
 20
98.65959875496225
 10
122.9635412610474
 20
96.92745860017668
 10
121.4653015544092
 20
97.79282350959774
 10
122.9642518119807
 20
98.65959875496225
  0
HATCH
  5
9B
330
1F
100
AcDbEntity
  8
レイヤー3
  6
Continuous
 62
     7
420
 16777215
370
    13
100
AcDbHatch
 10
0.0
 20
0.0
 30
0.0
210
0.0
220
0.0
230
1.0
  2
SOLID
 70
     1
 71
     0
 91
        1
 92
        3
 72
     0
 73
     1
 93
       72
 10
118.9324350932899
 20
114.5416824940306
 10
118.9375919705183
 20
114.6438080418132
 10
118.9526965608133
 20
114.7429837266302
 10
118.9772859294761
 20
114.8386927841663
 10
119.0108325462683
 20
114.9304399819529
 10
119.052830412798
 20
115.017719321598
 10
119.1028058284428
 20
115.100035570633
 10
119.1602312629645
 20
115.176882730666
 10
119.2246222498175
 20
115.2477655692282
 10
119.29547279061
 20
115.3121780879276
 10
119.3722661210268
 20
115.369635820219
 10
119.4545285404456
 20
115.4196220017871
 10
119.5417432845513
 20
115.46163063424
 10
119.6334043549521
 20
115.4951880169554
 10
119.7290165191791
 20
115.519766619695
 10
119.8280737788405
 20
115.5348927418365
 10
119.9300916673908
 20
115.5400388531416
 10
122.6454189954529
 20
115.5400388531416
 10
122.747609138775
 20
115.5348819759133
 10
122.8468171213616
 20
115.5197773856182
 10
122.942536944821
 20
115.4951772510321
 10
123.0342626107611
 20
115.4616414001632
 10
123.121531184483
 20
115.4196112358639
 10
123.2038259016715
 20
115.369635820219
 10
123.2806299980115
 20
115.3121780879276
 10
123.3514697728808
 20
115.2477655692282
 10
123.4158284619641
 20
115.176882730666
 10
123.4732323646393
 20
115.100035570633
 10
123.5231647165913
 20
115.017719321598
 10
123.5651302853512
 20
114.9304399819529
 10
123.5986446043737
 20
114.8387035500895
 10
123.6231909093436
 20
114.7429944925534
 10
123.6382847337154
 20
114.6438188077365
 10
123.6434308450205
 20
114.5416824940306
 10
123.6434308450205
 20
108.5278808400997
 10
122.7875937776601
 20
108.5278808400997
 10
122.7875937776601
 20
114.202663571442
 10
122.782770644052
 20
114.2537801749495
 10
122.7688610712357
 20
114.3034326128974
 10
122.7466725034537
 20
114.3513302053584
 10
122.7170985123343
 20
114.3972468679446
 10
122.6809465421199
 20
114.4409134525752
 10
122.6390671007458
 20
114.4821038748624
 10
122.5922783983778
 20
114.5205489867254
 10
122.5414417088743
 20
114.5560119378529
 10
122.4873752424012
 20
114.5882343460875
 10
122.4309618046633
 20
114.6169685951948
 10
122.3729873080568
 20
114.6419670689405
 10
122.3143130264402
 20
114.6629821510901
 10
122.2557894677488
 20
114.6797662254095
 10
122.1982456080716
 20
114.6920609097409
 10
122.1425104234974
 20
114.69961858785
 10
122.0894451878848
 20
114.7021916435026
 10
120.2871004477008
 20
114.7021916435026
 10
120.2359623123468
 20
114.69961858785
 10
120.1863314062454
 20
114.6920609097409
 10
120.1384338137844
 20
114.6797554594862
 10
120.0925171511982
 20
114.6629929170134
 10
120.0488398006443
 20
114.6419670689405
 10
120.0076709102036
 20
114.6169685951948
 10
119.9692150324174
 20
114.5882343460875
 10
119.9337520812899
 20
114.5560119378529
 10
119.9015296730552
 20
114.5205489867254
 10
119.8727954239479
 20
114.4821038748624
 10
119.8477969502023
 20
114.4409242184985
 10
119.8267818680526
 20
114.3972468679446
 10
119.8099977937333
 20
114.3513302053584
 10
119.7977031094019
 20
114.3034326128974
 10
119.7901454312927
 20
114.2537909408727
 10
119.7875723756402
 20
114.202663571442
 10
119.7875723756402
 20
89.59817955240092
 10
118.9324350932899
 20
89.59817955240092
 97
        0
 75
     1
 76
     1
 98
        0
  0
LWPOLYLINE
  5
9C
330
1F
100
AcDbEntity
  8
レイヤー3
  6
Continuous
 62
     7
420
 16777215
370
    13
100
AcDbPolyline
 90
       73
 70
     0
 43
0.0
 10
118.9324350932899
 20
114.5416824940306
 10
118.9375919705183
 20
114.6438080418132
 10
118.9526965608133
 20
114.7429837266302
 10
118.9772859294761
 20
114.8386927841663
 10
119.0108325462683
 20
114.9304399819529
 10
119.052830412798
 20
115.017719321598
 10
119.1028058284428
 20
115.100035570633
 10
119.1602312629645
 20
115.176882730666
 10
119.2246222498175
 20
115.2477655692282
 10
119.29547279061
 20
115.3121780879276
 10
119.3722661210268
 20
115.369635820219
 10
119.4545285404456
 20
115.4196220017871
 10
119.5417432845513
 20
115.46163063424
 10
119.6334043549521
 20
115.4951880169554
 10
119.7290165191791
 20
115.519766619695
 10
119.8280737788405
 20
115.5348927418365
 10
119.9300916673908
 20
115.5400388531416
 10
122.6454189954529
 20
115.5400388531416
 10
122.747609138775
 20
115.5348819759133
 10
122.8468171213616
 20
115.5197773856182
 10
122.942536944821
 20
115.4951772510321
 10
123.0342626107611
 20
115.4616414001632
 10
123.121531184483
 20
115.4196112358639
 10
123.2038259016715
 20
115.369635820219
 10
123.2806299980115
 20
115.3121780879276
 10
123.3514697728808
 20
115.2477655692282
 10
123.4158284619641
 20
115.176882730666
 10
123.4732323646393
 20
115.100035570633
 10
123.5231647165913
 20
115.017719321598
 10
123.5651302853512
 20
114.9304399819529
 10
123.5986446043737
 20
114.8387035500895
 10
123.6231909093436
 20
114.7429944925534
 10
123.6382847337154
 20
114.6438188077365
 10
123.6434308450205
 20
114.5416824940306
 10
123.6434308450205
 20
108.5278808400997
 10
122.7875937776601
 20
108.5278808400997
 10
122.7875937776601
 20
114.202663571442
 10
122.782770644052
 20
114.2537801749495
 10
122.7688610712357
 20
114.3034326128974
 10
122.7466725034537
 20
114.3513302053584
 10
122.7170985123343
 20
114.3972468679446
 10
122.6809465421199
 20
114.4409134525752
 10
122.6390671007458
 20
114.4821038748624
 10
122.5922783983778
 20
114.5205489867254
 10
122.5414417088743
 20
114.5560119378529
 10
122.4873752424012
 20
114.5882343460875
 10
122.4309618046633
 20
114.6169685951948
 10
122.3729873080568
 20
114.6419670689405
 10
122.3143130264402
 20
114.6629821510901
 10
122.2557894677488
 20
114.6797662254095
 10
122.1982456080716
 20
114.6920609097409
 10
122.1425104234974
 20
114.69961858785
 10
122.0894451878848
 20
114.7021916435026
 10
120.2871004477008
 20
114.7021916435026
 10
120.2359623123468
 20
114.69961858785
 10
120.1863314062454
 20
114.6920609097409
 10
120.1384338137844
 20
114.6797554594862
 10
120.0925171511982
 20
114.6629929170134
 10
120.0488398006443
 20
114.6419670689405
 10
120.0076709102036
 20
114.6169685951948
 10
119.9692150324174
 20
114.5882343460875
 10
119.9337520812899
 20
114.5560119378529
 10
119.9015296730552
 20
114.5205489867254
 10
119.8727954239479
 20
114.4821038748624
 10
119.8477969502023
 20
114.4409242184985
 10
119.8267818680526
 20
114.3972468679446
 10
119.8099977937333
 20
114.3513302053584
 10
119.7977031094019
 20
114.3034326128974
 10
119.7901454312927
 20
114.2537909408727
 10
119.7875723756402
 20
114.202663571442
 10
119.7875723756402
 20
89.59817955240092
 10
118.9324350932899
 20
89.59817955240092
 10
118.9324350932899
 20
114.5416824940306
  0
LWPOLYLINE
  5
9D
330
1F
100
AcDbEntity
  8
レイヤー3
  6
Continuous
 62
   250
420
  2367521
370
    25
100
AcDbPolyline
 90
       73
 70
     0
 43
0.0
 10
118.9324350932899
 20
114.5416824940306
 10
118.9375919705183
 20
114.6438080418132
 10
118.9526965608133
 20
114.7429837266302
 10
118.9772859294761
 20
114.8386927841663
 10
119.0108325462683
 20
114.9304399819529
 10
119.052830412798
 20
115.017719321598
 10
119.1028058284428
 20
115.100035570633
 10
119.1602312629645
 20
115.176882730666
 10
119.2246222498175
 20
115.2477655692282
 10
119.29547279061
 20
115.3121780879276
 10
119.3722661210268
 20
115.369635820219
 10
119.4545285404456
 20
115.4196220017871
 10
119.5417432845513
 20
115.46163063424
 10
119.6334043549521
 20
115.4951880169554
 10
119.7290165191791
 20
115.519766619695
 10
119.8280737788405
 20
115.5348927418365
 10
119.9300916673908
 20
115.5400388531416
 10
122.6454189954529
 20
115.5400388531416
 10
122.747609138775
 20
115.5348819759133
 10
122.8468171213616
 20
115.5197773856182
 10
122.942536944821
 20
115.4951772510321
 10
123.0342626107611
 20
115.4616414001632
 10
123.121531184483
 20
115.4196112358639
 10
123.2038259016715
 20
115.369635820219
 10
123.2806299980115
 20
115.3121780879276
 10
123.3514697728808
 20
115.2477655692282
 10
123.4158284619641
 20
115.176882730666
 10
123.4732323646393
 20
115.100035570633
 10
123.5231647165913
 20
115.017719321598
 10
123.5651302853512
 20
114.9304399819529
 10
123.5986446043737
 20
114.8387035500895
 10
123.6231909093436
 20
114.7429944925534
 10
123.6382847337154
 20
114.6438188077365
 10
123.6434308450205
 20
114.5416824940306
 10
123.6434308450205
 20
108.5278808400997
 10
122.7875937776601
 20
108.5278808400997
 10
122.7875937776601
 20
114.202663571442
 10
122.782770644052
 20
114.2537801749495
 10
122.7688610712357
 20
114.3034326128974
 10
122.7466725034537
 20
114.3513302053584
 10
122.7170985123343
 20
114.3972468679446
 10
122.6809465421199
 20
114.4409134525752
 10
122.6390671007458
 20
114.4821038748624
 10
122.5922783983778
 20
114.5205489867254
 10
122.5414417088743
 20
114.5560119378529
 10
122.4873752424012
 20
114.5882343460875
 10
122.4309618046633
 20
114.6169685951948
 10
122.3729873080568
 20
114.6419670689405
 10
122.3143130264402
 20
114.6629821510901
 10
122.2557894677488
 20
114.6797662254095
 10
122.1982456080716
 20
114.6920609097409
 10
122.1425104234974
 20
114.69961858785
 10
122.0894451878848
 20
114.7021916435026
 10
120.2871004477008
 20
114.7021916435026
 10
120.2359623123468
 20
114.69961858785
 10
120.1863314062454
 20
114.6920609097409
 10
120.1384338137844
 20
114.6797554594862
 10
120.0925171511982
 20
114.6629929170134
 10
120.0488398006443
 20
114.6419670689405
 10
120.0076709102036
 20
114.6169685951948
 10
119.9692150324174
 20
114.5882343460875
 10
119.9337520812899
 20
114.5560119378529
 10
119.9015296730552
 20
114.5205489867254
 10
119.8727954239479
 20
114.4821038748624
 10
119.8477969502023
 20
114.4409242184985
 10
119.8267818680526
 20
114.3972468679446
 10
119.8099977937333
 20
114.3513302053584
 10
119.7977031094019
 20
114.3034326128974
 10
119.7901454312927
 20
114.2537909408727
 10
119.7875723756402
 20
114.202663571442
 10
119.7875723756402
 20
89.59817955240092
 10
118.9324350932899
 20
89.59817955240092
 10
118.9324350932899
 20
114.5416824940306
  0
ENDSEC
  0
SECTION
  2
OBJECTS
  0
DICTIONARY
  5
C
330
0
100
AcDbDictionary
281
     1
  3
ACAD_DETAILVIEWSTYLE
350
A5
  3
ACAD_GROUP
350
D
  3
ACAD_LAYOUT
350
1A
  3
ACAD_MATERIAL
350
43
  3
ACAD_MLEADERSTYLE
350
5B
  3
ACAD_MLINESTYLE
350
17
  3
ACAD_PLOTSETTINGS
350
19
  3
ACAD_PLOTSTYLENAME
350
E
  3
ACAD_SCALELIST
350
47
  3
ACAD_SECTIONVIEWSTYLE
350
A6
  3
ACAD_TABLESTYLE
350
59
  3
ACAD_VISUALSTYLE
350
2A
  3
ACDB_RECOMPOSE_DATA
350
A2
  3
AcDbVariableDictionary
350
9E
  0
SUN
  5
5D
330
29
100
AcDbSun
 90
        1
290
     0
 63
     7
421
 16777215
 40
1.0
291
     1
 91
  2455826
 92
 54000000
292
     0
 70
     2
 71
   256
280
     1
  0
DICTIONARY
  5
A5
102
{ACAD_REACTORS
330
C
102
}
330
C
100
AcDbDictionary
281
     1
  0
DICTIONARY
  5
D
102
{ACAD_REACTORS
330
C
102
}
330
C
100
AcDbDictionary
281
     1
  0
DICTIONARY
  5
1A
102
{ACAD_REACTORS
330
C
102
}
330
C
100
AcDbDictionary
281
     1
  3
Layout1
350
1E
  3
Layout2
350
26
  3
Model
350
22
  0
DICTIONARY
  5
43
102
{ACAD_REACTORS
330
C
102
}
330
C
100
AcDbDictionary
281
     1
  3
ByBlock
350
45
  3
ByLayer
350
44
  3
Global
350
46
  0
DICTIONARY
  5
5B
102
{ACAD_REACTORS
330
C
102
}
330
C
100
AcDbDictionary
281
     1
  3
Standard
350
5C
  0
DICTIONARY
  5
17
102
{ACAD_REACTORS
330
C
102
}
330
C
100
AcDbDictionary
281
     1
  3
Standard
350
18
  0
DICTIONARY
  5
19
102
{ACAD_REACTORS
330
C
102
}
330
C
100
AcDbDictionary
281
     1
  0
ACDBDICTIONARYWDFLT
  5
E
102
{ACAD_REACTORS
330
C
102
}
330
C
100
AcDbDictionary
281
     1
  3
Normal
350
F
100
AcDbDictionaryWithDefault
340
F
  0
DICTIONARY
  5
47
102
{ACAD_REACTORS
330
C
102
}
330
C
100
AcDbDictionary
281
     1
  3
A0
350
48
  3
A1
350
49
  3
A2
350
4A
  3
A3
350
4B
  3
A4
350
4C
  3
A5
350
4D
  3
A6
350
4E
  3
A7
350
4F
  3
A8
350
50
  3
A9
350
51
  3
B0
350
52
  3
B1
350
53
  3
B2
350
54
  3
B3
350
55
  3
B4
350
56
  3
B5
350
57
  3
B6
350
58
  0
DICTIONARY
  5
A6
102
{ACAD_REACTORS
330
C
102
}
330
C
100
AcDbDictionary
281
     1
  0
DICTIONARY
  5
59
102
{ACAD_REACTORS
330
C
102
}
330
C
100
AcDbDictionary
281
     1
  3
Standard
350
5A
  0
DICTIONARY
  5
2A
102
{ACAD_REACTORS
330
C
102
}
330
C
100
AcDbDictionary
281
     1
  3
2dWireframe
350
2F
  3
Basic
350
32
  3
Brighten
350
36
  3
ColorChange
350
3A
  3
Conceptual
350
34
  3
Dim
350
35
  3
EdgeColorOff
350
3D
  3
Facepattern
350
39
  3
Flat
350
2B
  3
FlatWithEdges
350
2C
  3
Gouraud
350
2D
  3
GouraudWithEdges
350
2E
  3
Hidden
350
31
  3
JitterOff
350
3B
  3
Linepattern
350
38
  3
OverhangOff
350
3C
  3
Realistic
350
33
  3
Shaded
350
42
  3
Shaded with edges
350
41
  3
Shades of Gray
350
3E
  3
Sketchy
350
3F
  3
Thicken
350
37
  3
Wireframe
350
30
  3
X-Ray
350
40
  0
XRECORD
  5
A2
102
{ACAD_REACTORS
330
C
102
}
330
C
100
AcDbXrecord
280
     1
 90
        1
330
5A
  0
DICTIONARY
  5
9E
102
{ACAD_REACTORS
330
C
102
}
330
C
100
AcDbDictionary
281
     1
  3
CANNOSCALE
350
9F
  3
CENTEREXE
350
A7
  3
CENTERLTYPEFILE
350
A8
  3
CMLEADERSTYLE
350
A4
  3
CTABLESTYLE
350
A3
  0
LAYOUT
  5
1E
102
{ACAD_REACTORS
330
1A
102
}
330
1A
100
AcDbPlotSettings
  1

  2
none_device
  4

  6

 40
0.0
 41
0.0
 42
0.0
 43
0.0
 44
0.0
 45
0.0
 46
0.0
 47
0.0
 48
0.0
 49
0.0
140
0.0
141
0.0
142
1.0
143
1.0
 70
   688
 72
     1
 73
     0
 74
     5
  7

 75
    16
 76
     0
 77
     5
 78
   300
147
1.0
148
0.0
149
0.0
100
AcDbLayout
  1
Layout1
 70
     1
 71
     1
 10
0.0
 20
0.0
 11
420.0
 21
297.0
 12
0.0
 22
0.0
 32
0.0
 14
1.000000000000000E+20
 24
1.000000000000000E+20
 34
1.000000000000000E+20
 15
-1.000000000000000E+20
 25
-1.000000000000000E+20
 35
-1.000000000000000E+20
146
0.0
 13
0.0
 23
0.0
 33
0.0
 16
1.0
 26
0.0
 36
0.0
 17
0.0
 27
1.0
 37
0.0
 76
     0
330
1B
  0
LAYOUT
  5
26
102
{ACAD_REACTORS
330
1A
102
}
330
1A
100
AcDbPlotSettings
  1

  2
none_device
  4

  6

 40
0.0
 41
0.0
 42
0.0
 43
0.0
 44
0.0
 45
0.0
 46
0.0
 47
0.0
 48
0.0
 49
0.0
140
0.0
141
0.0
142
1.0
143
1.0
 70
   688
 72
     1
 73
     0
 74
     5
  7

 75
    16
 76
     0
 77
     5
 78
   300
147
1.0
148
0.0
149
0.0
100
AcDbLayout
  1
Layout2
 70
     1
 71
     2
 10
0.0
 20
0.0
 11
0.0
 21
0.0
 12
0.0
 22
0.0
 32
0.0
 14
0.0
 24
0.0
 34
0.0
 15
0.0
 25
0.0
 35
0.0
146
0.0
 13
0.0
 23
0.0
 33
0.0
 16
1.0
 26
0.0
 36
0.0
 17
0.0
 27
1.0
 37
0.0
 76
     0
330
23
  0
LAYOUT
  5
22
102
{ACAD_REACTORS
330
1A
102
}
330
1A
100
AcDbPlotSettings
  1

  2
none_device
  4
Letter_(8.50_x_11.00_Inches)
  6

 40
6.35
 41
6.35
 42
6.35000508
 43
6.35000508
 44
215.9
 45
279.4
 46
0.0
 47
0.0
 48
0.0
 49
0.0
140
0.0
141
0.0
142
1.0
143
1.0
 70
  1712
 72
     1
 73
     0
 74
     0
  7

 75
     0
 76
     0
 77
     5
 78
   300
147
1.0
148
0.0
149
0.0
100
AcDbLayout
  1
Model
 70
     1
 71
     0
 10
0.0
 20
0.0
 11
302.9997823349792
 21
216.0016055409748
 12
0.0
 22
0.0
 32
0.0
 14
0.0
 24
0.0
 34
0.0
 15
302.9997823349792
 25
216.0016055409748
 35
0.0
146
0.0
 13
0.0
 23
0.0
 33
0.0
 16
1.0
 26
0.0
 36
0.0
 17
0.0
 27
1.0
 37
0.0
 76
     0
330
1F
331
29
  0
MATERIAL
  5
45
102
{ACAD_REACTORS
330
43
102
}
330
43
100
AcDbMaterial
  1
ByBlock
 72
     1
 94
      127
  0
MATERIAL
  5
44
102
{ACAD_REACTORS
330
43
102
}
330
43
100
AcDbMaterial
  1
ByLayer
 72
     1
 94
      127
  0
MATERIAL
  5
46
102
{ACAD_REACTORS
330
43
102
}
330
43
100
AcDbMaterial
  1
Global
 72
     1
 94
      127
  0
MLEADERSTYLE
  5
5C
102
{ACAD_REACTORS
330
5B
102
}
330
5B
100
AcDbMLeaderStyle
179
     2
170
     2
171
     1
172
     0
 90
        2
 40
0.0
 41
0.0
173
     1
 91
-1056964608
340
14
 92
       -2
290
     1
 42
2.0
291
     1
 43
8.0
  3
Standard
341
0
 44
4.0
300

342
11
174
     1
178
     6
175
     1
176
     0
 93
-1056964608
 45
4.0
292
     0
297
     0
 46
4.0
343
0
 94
-1056964608
 47
1.0
 49
1.0
140
1.0
293
     1
141
0.0
294
     1
177
     0
142
1.0
295
     0
296
     0
143
3.75
271
     0
272
     9
273
     9
298
     0
  0
MLINESTYLE
  5
18
102
{ACAD_REACTORS
330
17
102
}
330
17
100
AcDbMlineStyle
  2
Standard
 70
     0
  3

 62
   256
 51
90.0
 52
90.0
 71
     2
 49
0.5
 62
   256
  6
BYLAYER
 49
-0.5
 62
   256
  6
BYLAYER
  0
ACDBPLACEHOLDER
  5
F
102
{ACAD_REACTORS
330
E
102
}
330
E
  0
SCALE
  5
48
102
{ACAD_REACTORS
330
47
102
}
330
47
100
AcDbScale
 70
     0
300
1:1
140
1.0
141
1.0
290
     1
  0
SCALE
  5
49
102
{ACAD_REACTORS
330
47
102
}
330
47
100
AcDbScale
 70
     0
300
1:2
140
1.0
141
2.0
290
     0
  0
SCALE
  5
4A
102
{ACAD_REACTORS
330
47
102
}
330
47
100
AcDbScale
 70
     0
300
1:4
140
1.0
141
4.0
290
     0
  0
SCALE
  5
4B
102
{ACAD_REACTORS
330
47
102
}
330
47
100
AcDbScale
 70
     0
300
1:5
140
1.0
141
5.0
290
     0
  0
SCALE
  5
4C
102
{ACAD_REACTORS
330
47
102
}
330
47
100
AcDbScale
 70
     0
300
1:8
140
1.0
141
8.0
290
     0
  0
SCALE
  5
4D
102
{ACAD_REACTORS
330
47
102
}
330
47
100
AcDbScale
 70
     0
300
1:10
140
1.0
141
10.0
290
     0
  0
SCALE
  5
4E
102
{ACAD_REACTORS
330
47
102
}
330
47
100
AcDbScale
 70
     0
300
1:16
140
1.0
141
16.0
290
     0
  0
SCALE
  5
4F
102
{ACAD_REACTORS
330
47
102
}
330
47
100
AcDbScale
 70
     0
300
1:20
140
1.0
141
20.0
290
     0
  0
SCALE
  5
50
102
{ACAD_REACTORS
330
47
102
}
330
47
100
AcDbScale
 70
     0
300
1:30
140
1.0
141
30.0
290
     0
  0
SCALE
  5
51
102
{ACAD_REACTORS
330
47
102
}
330
47
100
AcDbScale
 70
     0
300
1:40
140
1.0
141
40.0
290
     0
  0
SCALE
  5
52
102
{ACAD_REACTORS
330
47
102
}
330
47
100
AcDbScale
 70
     0
300
1:50
140
1.0
141
50.0
290
     0
  0
SCALE
  5
53
102
{ACAD_REACTORS
330
47
102
}
330
47
100
AcDbScale
 70
     0
300
1:100
140
1.0
141
100.0
290
     0
  0
SCALE
  5
54
102
{ACAD_REACTORS
330
47
102
}
330
47
100
AcDbScale
 70
     0
300
2:1
140
2.0
141
1.0
290
     0
  0
SCALE
  5
55
102
{ACAD_REACTORS
330
47
102
}
330
47
100
AcDbScale
 70
     0
300
4:1
140
4.0
141
1.0
290
     0
  0
SCALE
  5
56
102
{ACAD_REACTORS
330
47
102
}
330
47
100
AcDbScale
 70
     0
300
8:1
140
8.0
141
1.0
290
     0
  0
SCALE
  5
57
102
{ACAD_REACTORS
330
47
102
}
330
47
100
AcDbScale
 70
     0
300
10:1
140
10.0
141
1.0
290
     0
  0
SCALE
  5
58
102
{ACAD_REACTORS
330
47
102
}
330
47
100
AcDbScale
 70
     0
300
100:1
140
100.0
141
1.0
290
     0
  0
TABLESTYLE
  5
5A
102
{ACAD_REACTORS
330
59
102
}
102
{ACAD_XDICTIONARY
360
A0
102
}
330
59
100
AcDbTableStyle
  3
Standard
 70
     0
 71
     0
 40
0.06
 41
0.06
280
     0
281
     0
  7
Standard
140
4.5
170
     2
 62
     0
 63
   257
283
     0
 90
        4
 91
        0
  1

274
    -2
284
     1
 64
     0
275
    -2
285
     1
 65
     0
276
    -2
286
     1
 66
     0
277
    -2
287
     1
 67
     0
278
    -2
288
     1
 68
     0
279
    -2
289
     1
 69
     0
  7
Standard
140
6.0
170
     5
 62
     0
 63
   257
283
     0
 90
        4
 91
        0
  1

274
    -2
284
     1
 64
     0
275
    -2
285
     1
 65
     0
276
    -2
286
     1
 66
     0
277
    -2
287
     1
 67
     0
278
    -2
288
     1
 68
     0
279
    -2
289
     1
 69
     0
  7
Standard
140
4.5
170
     5
 62
     0
 63
   257
283
     0
 90
        4
 91
        0
  1

274
    -2
284
     1
 64
     0
275
    -2
285
     1
 65
     0
276
    -2
286
     1
 66
     0
277
    -2
287
     1
 67
     0
278
    -2
288
     1
 68
     0
279
    -2
289
     1
 69
     0
  0
VISUALSTYLE
  5
2F
102
{ACAD_REACTORS
330
2A
102
}
330
2A
100
AcDbVisualStyle
  2
2dWireframe
 70
     4
177
     3
291
     0
 70
    58
 90
        0
176
     1
 90
        2
176
     1
 90
        0
176
     1
 90
        0
176
     1
 40
0.6
176
     1
 40
30.0
176
     1
 62
     7
420
 16777215
176
     1
 90
        1
176
     1
 90
        4
176
     1
 62
     7
176
     1
 62
   257
176
     1
 90
        1
176
     1
 90
        1
176
     1
 40
1.0
176
     1
 90
        0
176
     1
 62
   257
176
     1
 40
1.0
176
     1
 90
        1
176
     1
 90
        6
176
     1
 90
        2
176
     1
 62
     7
176
     1
 90
        5
176
     1
 90
        0
176
     1
 90
        0
176
     1
290
     0
176
     1
 90
        1
176
     1
 40
0.0
176
     1
 90
        0
176
     1
290
     1
176
     1
290
     1
176
     1
290
     0
176
     1
290
     0
176
     1
290
     0
176
     1
290
     0
176
     1
290
     0
176
     1
290
     0
176
     1
290
     0
176
     1
 90
       50
176
     1
 40
0.0
176
     1
 40
1.0
176
     1
 90
        0
176
     1
 62
    18
420
        0
176
     1
 90
       50
176
     1
 90
        3
176
     1
 62
     5
420
      255
176
     1
290
     0
176
     1
 90
       50
176
     1
 90
       50
176
     1
 90
       50
176
     1
290
     0
176
     1
 90
       50
176
     1
 62
   256
176
     0
 40
1.0
176
     0
 90
        2
176
     1
  1
strokes_ogs.tif
176
     1
290
     0
176
     1
 40
1.0
176
     1
 40
1.0
176
     1
  0
VISUALSTYLE
  5
32
102
{ACAD_REACTORS
330
2A
102
}
330
2A
100
AcDbVisualStyle
  2
Basic
 70
     7
177
     3
291
     1
 70
    58
 90
        1
176
     1
 90
        0
176
     1
 90
        1
176
     1
 90
        0
176
     1
 40
0.6
176
     1
 40
30.0
176
     1
 62
     7
420
 16777215
176
     1
 90
        0
176
     1
 90
        4
176
     1
 62
     7
176
     1
 62
   257
176
     1
 90
        1
176
     1
 90
        1
176
     1
 40
1.0
176
     1
 90
        8
176
     1
 62
     7
176
     1
 40
1.0
176
     1
 90
        1
176
     1
 90
        6
176
     1
 90
        2
176
     1
 62
     7
176
     1
 90
        5
176
     1
 90
        0
176
     1
 90
        0
176
     1
290
     0
176
     1
 90
        1
176
     1
 40
0.0
176
     1
 90
        0
176
     1
290
     0
176
     1
290
     1
176
     1
290
     1
176
     1
290
     0
176
     1
290
     0
176
     1
290
     0
176
     1
290
     0
176
     1
290
     0
176
     1
290
     0
176
     1
 90
       50
176
     1
 40
0.0
176
     1
 40
1.0
176
     1
 90
        0
176
     1
 62
    18
420
        0
176
     1
 90
       50
176
     1
 90
        3
176
     1
 62
     5
420
      255
176
     1
290
     0
176
     1
 90
       50
176
     1
 90
       50
176
     1
 90
       50
176
     1
290
     0
176
     1
 90
       50
176
     1
 62
   256
176
     0
 40
1.0
176
     0
 90
        2
176
     1
  1
strokes_ogs.tif
176
     1
290
     0
176
     1
 40
1.0
176
     1
 40
1.0
176
     1
  0
VISUALSTYLE
  5
36
102
{ACAD_REACTORS
330
2A
102
}
330
2A
100
AcDbVisualStyle
  2
Brighten
 70
    12
177
     3
291
     1
 70
    58
 90
        2
176
     1
 90
        2
176
     1
 90
        0
176
     1
 90
        0
176
     1
 40
0.6
176
     1
 40
30.0
176
     1
 62
     7
420
 16777215
176
     1
 90
        1
176
     1
 90
        4
176
     1
 62
     7
176
     1
 62
   257
176
     1
 90
        1
176
     1
 90
        1
176
     1
 40
1.0
176
     1
 90
        8
176
     1
 62
     7
176
     1
 40
1.0
176
     1
 90
        1
176
     1
 90
        6
176
     1
 90
        2
176
     1
 62
     7
176
     1
 90
        5
176
     1
 90
        0
176
     1
 90
        0
176
     1
290
     0
176
     1
 90
        1
176
     1
 40
50.0
176
     1
 90
        0
176
     1
290
     0
176
     1
290
     1
176
     1
290
     1
176
     1
290
     0
176
     1
290
     0
176
     1
290
     0
176
     1
290
     0
176
     1
290
     0
176
     1
290
     0
176
     1
 90
       50
176
     1
 40
0.0
176
     1
 40
1.0
176
     1
 90
        0
176
     1
 62
    18
420
        0
176
     1
 90
       50
176
     1
 90
        3
176
     1
 62
     5
420
      255
176
     1
290
     0
176
     1
 90
       50
176
     1
 90
       50
176
     1
 90
       50
176
     1
290
     0
176
     1
 90
       50
176
     1
 62
   256
176
     0
 40
1.0
176
     0
 90
        2
176
     1
  1
strokes_ogs.tif
176
     1
290
     0
176
     1
 40
1.0
176
     1
 40
1.0
176
     1
  0
VISUALSTYLE
  5
3A
102
{ACAD_REACTORS
330
2A
102
}
330
2A
100
AcDbVisualStyle
  2
ColorChange
 70
    16
177
     3
291
     1
 70
    58
 90
        2
176
     1
 90
        2
176
     1
 90
        3
176
     1
 90
        0
176
     1
 40
0.6
176
     1
 40
30.0
176
     1
 62
     8
420
  8421504
176
     1
 90
        1
176
     1
 90
        4
176
     1
 62
     7
176
     1
 62
   257
176
     1
 90
        1
176
     1
 90
        1
176
     1
 40
1.0
176
     1
 90
        8
176
     1
 62
     8
420
  8421504
176
     1
 40
1.0
176
     1
 90
        1
176
     1
 90
        6
176
     1
 90
        2
176
     1
 62
     7
176
     1
 90
        5
176
     1
 90
        0
176
     1
 90
        0
176
     1
290
     0
176
     1
 90
        1
176
     1
 40
0.0
176
     1
 90
        0
176
     1
290
     0
176
     1
290
     1
176
     1
290
     1
176
     1
290
     0
176
     1
290
     0
176
     1
290
     0
176
     1
290
     0
176
     1
290
     0
176
     1
290
     0
176
     1
 90
       50
176
     1
 40
0.0
176
     1
 40
1.0
176
     1
 90
        0
176
     1
 62
    18
420
        0
176
     1
 90
       50
176
     1
 90
        3
176
     1
 62
     5
420
      255
176
     1
290
     0
176
     1
 90
       50
176
     1
 90
       50
176
     1
 90
       50
176
     1
290
     0
176
     1
 90
       50
176
     1
 62
   256
176
     0
 40
1.0
176
     0
 90
        2
176
     1
  1
strokes_ogs.tif
176
     1
290
     0
176
     1
 40
1.0
176
     1
 40
1.0
176
     1
  0
VISUALSTYLE
  5
34
102
{ACAD_REACTORS
330
2A
102
}
330
2A
100
AcDbVisualStyle
  2
Conceptual
 70
     9
177
     3
291
     0
 70
    58
 90
        3
176
     1
 90
        2
176
     1
 90
        0
176
     1
 90
        0
176
     1
 40
0.6
176
     1
 40
30.0
176
     1
 62
     7
420
 16777215
176
     1
 90
        2
176
     1
 90
        2
176
     1
 62
     7
176
     1
 62
   257
176
     1
 90
        1
176
     1
 90
        1
176
     1
 40
179.0
176
     1
 90
        8
176
     1
 62
     7
176
     1
 40
1.0
176
     1
 90
        1
176
     1
 90
        6
176
     1
 90
        2
176
     1
 62
     7
176
     1
 90
        3
176
     1
 90
        0
176
     1
 90
        0
176
     1
290
     0
176
     1
 90
        1
176
     1
 40
0.0
176
     1
 90
        0
176
     1
290
     0
176
     1
290
     1
176
     1
290
     1
176
     1
290
     0
176
     1
290
     0
176
     1
290
     0
176
     1
290
     0
176
     1
290
     0
176
     1
290
     0
176
     1
 90
       50
176
     1
 40
0.0
176
     1
 40
1.0
176
     1
 90
        0
176
     1
 62
    18
420
        0
176
     1
 90
       50
176
     1
 90
        3
176
     1
 62
     5
420
      255
176
     1
290
     0
176
     1
 90
       50
176
     1
 90
       50
176
     1
 90
       50
176
     1
290
     0
176
     1
 90
       50
176
     1
 62
   256
176
     0
 40
1.0
176
     0
 90
        2
176
     1
  1
strokes_ogs.tif
176
     1
290
     0
176
     1
 40
1.0
176
     1
 40
1.0
176
     1
  0
VISUALSTYLE
  5
35
102
{ACAD_REACTORS
330
2A
102
}
330
2A
100
AcDbVisualStyle
  2
Dim
 70
    11
177
     3
291
     1
 70
    58
 90
        2
176
     1
 90
        2
176
     1
 90
        0
176
     1
 90
        0
176
     1
 40
0.6
176
     1
 40
30.0
176
     1
 62
     7
420
 16777215
176
     1
 90
        1
176
     1
 90
        4
176
     1
 62
     7
176
     1
 62
   257
176
     1
 90
        1
176
     1
 90
        1
176
     1
 40
1.0
176
     1
 90
        8
176
     1
 62
     7
176
     1
 40
1.0
176
     1
 90
        1
176
     1
 90
        6
176
     1
 90
        2
176
     1
 62
     7
176
     1
 90
        5
176
     1
 90
        0
176
     1
 90
        0
176
     1
290
     0
176
     1
 90
        1
176
     1
 40
-50.0
176
     1
 90
        0
176
     1
290
     0
176
     1
290
     1
176
     1
290
     1
176
     1
290
     0
176
     1
290
     0
176
     1
290
     0
176
     1
290
     0
176
     1
290
     0
176
     1
290
     0
176
     1
 90
       50
176
     1
 40
0.0
176
     1
 40
1.0
176
     1
 90
        0
176
     1
 62
    18
420
        0
176
     1
 90
       50
176
     1
 90
        3
176
     1
 62
     5
420
      255
176
     1
290
     0
176
     1
 90
       50
176
     1
 90
       50
176
     1
 90
       50
176
     1
290
     0
176
     1
 90
       50
176
     1
 62
   256
176
     0
 40
1.0
176
     0
 90
        2
176
     1
  1
strokes_ogs.tif
176
     1
290
     0
176
     1
 40
1.0
176
     1
 40
1.0
176
     1
  0
VISUALSTYLE
  5
3D
102
{ACAD_REACTORS
330
2A
102
}
330
2A
100
AcDbVisualStyle
  2
EdgeColorOff
 70
    22
177
     3
291
     1
 70
    58
 90
        2
176
     0
 90
        2
176
     0
 90
        0
176
     0
 90
        0
176
     0
 40
0.6
176
     0
 40
30.0
176
     0
 62
     7
420
 16777215
176
     0
 90
        1
176
     0
 90
        4
176
     0
 62
     7
176
     0
 62
   257
176
     0
 90
        1
176
     0
 90
        1
176
     0
 40
1.0
176
     0
 90
        8
176
     2
 62
     7
176
     0
 40
1.0
176
     0
 90
        1
176
     0
 90
        6
176
     0
 90
        2
176
     0
 62
     7
176
     0
 90
        5
176
     0
 90
        0
176
     0
 90
        0
176
     0
290
     0
176
     0
 90
        1
176
     0
 40
0.0
176
     0
 90
        0
176
     0
290
     0
176
     0
290
     1
176
     0
290
     1
176
     0
290
     0
176
     0
290
     0
176
     0
290
     0
176
     0
290
     0
176
     0
290
     0
176
     0
290
     0
176
     0
 90
       50
176
     0
 40
0.0
176
     0
 40
1.0
176
     0
 90
        0
176
     0
 62
    18
420
        0
176
     0
 90
       50
176
     0
 90
        3
176
     0
 62
     5
420
      255
176
     0
290
     0
176
     0
 90
       50
176
     0
 90
       50
176
     0
 90
       50
176
     0
290
     0
176
     0
 90
       50
176
     0
 62
   256
176
     0
 40
1.0
176
     0
 90
        2
176
     0
  1
strokes_ogs.tif
176
     0
290
     0
176
     0
 40
1.0
176
     0
 40
1.0
176
     0
  0
VISUALSTYLE
  5
39
102
{ACAD_REACTORS
330
2A
102
}
330
2A
100
AcDbVisualStyle
  2
Facepattern
 70
    15
177
     3
291
     1
 70
    58
 90
        2
176
     1
 90
        2
176
     1
 90
        0
176
     1
 90
        0
176
     1
 40
0.6
176
     1
 40
30.0
176
     1
 62
     7
420
 16777215
176
     1
 90
        1
176
     1
 90
        4
176
     1
 62
     7
176
     1
 62
   257
176
     1
 90
        1
176
     1
 90
        1
176
     1
 40
1.0
176
     1
 90
        8
176
     1
 62
     7
176
     1
 40
1.0
176
     1
 90
        1
176
     1
 90
        6
176
     1
 90
        2
176
     1
 62
     7
176
     1
 90
        5
176
     1
 90
        0
176
     1
 90
        0
176
     1
290
     0
176
     1
 90
        1
176
     1
 40
0.0
176
     1
 90
        0
176
     1
290
     0
176
     1
290
     1
176
     1
290
     1
176
     1
290
     0
176
     1
290
     0
176
     1
290
     0
176
     1
290
     0
176
     1
290
     0
176
     1
290
     0
176
     1
 90
       50
176
     1
 40
0.0
176
     1
 40
1.0
176
     1
 90
        0
176
     1
 62
    18
420
        0
176
     1
 90
       50
176
     1
 90
        3
176
     1
 62
     5
420
      255
176
     1
290
     0
176
     1
 90
       50
176
     1
 90
       50
176
     1
 90
       50
176
     1
290
     0
176
     1
 90
       50
176
     1
 62
   256
176
     0
 40
1.0
176
     0
 90
        2
176
     1
  1
strokes_ogs.tif
176
     1
290
     0
176
     1
 40
1.0
176
     1
 40
1.0
176
     1
  0
VISUALSTYLE
  5
2B
102
{ACAD_REACTORS
330
2A
102
}
330
2A
100
AcDbVisualStyle
  2
Flat
 70
     0
177
     3
291
     1
 70
    58
 90
        2
176
     1
 90
        1
176
     1
 90
        1
176
     1
 90
        2
176
     1
 40
0.6
176
     1
 40
30.0
176
     1
 62
     7
420
 16777215
176
     1
 90
        0
176
     1
 90
        0
176
     1
 62
     7
176
     1
 62
   257
176
     1
 90
        1
176
     1
 90
        1
176
     1
 40
1.0
176
     1
 90
        8
176
     1
 62
     7
176
     1
 40
1.0
176
     1
 90
        1
176
     1
 90
        6
176
     1
 90
        2
176
     1
 62
     7
176
     1
 90
        5
176
     1
 90
        0
176
     1
 90
        0
176
     1
290
     0
176
     1
 90
       13
176
     1
 40
0.0
176
     1
 90
        0
176
     1
290
     0
176
     1
290
     1
176
     1
290
     1
176
     1
290
     0
176
     1
290
     0
176
     1
290
     0
176
     1
290
     0
176
     1
290
     0
176
     1
290
     0
176
     1
 90
       50
176
     1
 40
0.0
176
     1
 40
1.0
176
     1
 90
        0
176
     1
 62
    18
420
        0
176
     1
 90
       50
176
     1
 90
        3
176
     1
 62
     5
420
      255
176
     1
290
     0
176
     1
 90
       50
176
     1
 90
       50
176
     1
 90
       50
176
     1
290
     0
176
     1
 90
       50
176
     1
 62
   256
176
     0
 40
1.0
176
     0
 90
        2
176
     1
  1
strokes_ogs.tif
176
     1
290
     0
176
     1
 40
1.0
176
     1
 40
1.0
176
     1
  0
VISUALSTYLE
  5
2C
102
{ACAD_REACTORS
330
2A
102
}
330
2A
100
AcDbVisualStyle
  2
FlatWithEdges
 70
     1
177
     3
291
     1
 70
    58
 90
        2
176
     1
 90
        1
176
     1
 90
        1
176
     1
 90
        2
176
     1
 40
0.6
176
     1
 40
30.0
176
     1
 62
     7
420
 16777215
176
     1
 90
        1
176
     1
 90
        0
176
     1
 62
     7
176
     1
 62
   257
176
     1
 90
        1
176
     1
 90
        1
176
     1
 40
1.0
176
     1
 90
        0
176
     1
 62
   257
176
     1
 40
1.0
176
     1
 90
        1
176
     1
 90
        6
176
     1
 90
        2
176
     1
 62
     7
176
     1
 90
        5
176
     1
 90
        0
176
     1
 90
        0
176
     1
290
     0
176
     1
 90
       13
176
     1
 40
0.0
176
     1
 90
        0
176
     1
290
     0
176
     1
290
     1
176
     1
290
     1
176
     1
290
     0
176
     1
290
     0
176
     1
290
     0
176
     1
290
     0
176
     1
290
     0
176
     1
290
     0
176
     1
 90
       50
176
     1
 40
0.0
176
     1
 40
1.0
176
     1
 90
        0
176
     1
 62
    18
420
        0
176
     1
 90
       50
176
     1
 90
        3
176
     1
 62
     5
420
      255
176
     1
290
     0
176
     1
 90
       50
176
     1
 90
       50
176
     1
 90
       50
176
     1
290
     0
176
     1
 90
       50
176
     1
 62
   256
176
     0
 40
1.0
176
     0
 90
        2
176
     1
  1
strokes_ogs.tif
176
     1
290
     0
176
     1
 40
1.0
176
     1
 40
1.0
176
     1
  0
VISUALSTYLE
  5
2D
102
{ACAD_REACTORS
330
2A
102
}
330
2A
100
AcDbVisualStyle
  2
Gouraud
 70
     2
177
     3
291
     1
 70
    58
 90
        2
176
     1
 90
        2
176
     1
 90
        1
176
     1
 90
        2
176
     1
 40
0.6
176
     1
 40
30.0
176
     1
 62
     7
420
 16777215
176
     1
 90
        0
176
     1
 90
        0
176
     1
 62
     7
176
     1
 62
   257
176
     1
 90
        1
176
     1
 90
        1
176
     1
 40
1.0
176
     1
 90
        0
176
     1
 62
     7
176
     1
 40
1.0
176
     1
 90
        1
176
     1
 90
        6
176
     1
 90
        2
176
     1
 62
     7
176
     1
 90
        5
176
     1
 90
        0
176
     1
 90
        0
176
     1
290
     0
176
     1
 90
       13
176
     1
 40
0.0
176
     1
 90
        0
176
     1
290
     0
176
     1
290
     1
176
     1
290
     1
176
     1
290
     0
176
     1
290
     0
176
     1
290
     0
176
     1
290
     0
176
     1
290
     0
176
     1
290
     0
176
     1
 90
       50
176
     1
 40
0.0
176
     1
 40
1.0
176
     1
 90
        0
176
     1
 62
    18
420
        0
176
     1
 90
       50
176
     1
 90
        3
176
     1
 62
     5
420
      255
176
     1
290
     0
176
     1
 90
       50
176
     1
 90
       50
176
     1
 90
       50
176
     1
290
     0
176
     1
 90
       50
176
     1
 62
   256
176
     0
 40
1.0
176
     0
 90
        2
176
     1
  1
strokes_ogs.tif
176
     1
290
     0
176
     1
 40
1.0
176
     1
 40
1.0
176
     1
  0
VISUALSTYLE
  5
2E
102
{ACAD_REACTORS
330
2A
102
}
330
2A
100
AcDbVisualStyle
  2
GouraudWithEdges
 70
     3
177
     3
291
     1
 70
    58
 90
        2
176
     1
 90
        2
176
     1
 90
        1
176
     1
 90
        2
176
     1
 40
0.6
176
     1
 40
30.0
176
     1
 62
     7
420
 16777215
176
     1
 90
        1
176
     1
 90
        0
176
     1
 62
     7
176
     1
 62
   257
176
     1
 90
        1
176
     1
 90
        1
176
     1
 40
1.0
176
     1
 90
        0
176
     1
 62
   257
176
     1
 40
1.0
176
     1
 90
        1
176
     1
 90
        6
176
     1
 90
        2
176
     1
 62
     7
176
     1
 90
        5
176
     1
 90
        0
176
     1
 90
        0
176
     1
290
     0
176
     1
 90
       13
176
     1
 40
0.0
176
     1
 90
        0
176
     1
290
     0
176
     1
290
     1
176
     1
290
     1
176
     1
290
     0
176
     1
290
     0
176
     1
290
     0
176
     1
290
     0
176
     1
290
     0
176
     1
290
     0
176
     1
 90
       50
176
     1
 40
0.0
176
     1
 40
1.0
176
     1
 90
        0
176
     1
 62
    18
420
        0
176
     1
 90
       50
176
     1
 90
        3
176
     1
 62
     5
420
      255
176
     1
290
     0
176
     1
 90
       50
176
     1
 90
       50
176
     1
 90
       50
176
     1
290
     0
176
     1
 90
       50
176
     1
 62
   256
176
     0
 40
1.0
176
     0
 90
        2
176
     1
  1
strokes_ogs.tif
176
     1
290
     0
176
     1
 40
1.0
176
     1
 40
1.0
176
     1
  0
VISUALSTYLE
  5
31
102
{ACAD_REACTORS
330
2A
102
}
330
2A
100
AcDbVisualStyle
  2
Hidden
 70
     6
177
     3
291
     0
 70
    58
 90
        1
176
     1
 90
        2
176
     1
 90
        2
176
     1
 90
        0
176
     1
 40
0.6
176
     1
 40
30.0
176
     1
 62
     7
420
 16777215
176
     1
 90
        2
176
     1
 90
        2
176
     1
 62
     7
176
     1
 62
   257
176
     1
 90
        2
176
     1
 90
        1
176
     1
 40
40.0
176
     1
 90
        0
176
     1
 62
   257
176
     1
 40
1.0
176
     1
 90
        1
176
     1
 90
        6
176
     1
 90
        2
176
     1
 62
     7
176
     1
 90
        3
176
     1
 90
        0
176
     1
 90
        0
176
     1
290
     0
176
     1
 90
        1
176
     1
 40
0.0
176
     1
 90
        0
176
     1
290
     0
176
     1
290
     1
176
     1
290
     1
176
     1
290
     0
176
     1
290
     0
176
     1
290
     0
176
     1
290
     0
176
     1
290
     0
176
     1
290
     0
176
     1
 90
       50
176
     1
 40
0.0
176
     1
 40
1.0
176
     1
 90
        0
176
     1
 62
    18
420
        0
176
     1
 90
       50
176
     1
 90
        3
176
     1
 62
     5
420
      255
176
     1
290
     0
176
     1
 90
       50
176
     1
 90
       50
176
     1
 90
       50
176
     1
290
     0
176
     1
 90
       50
176
     1
 62
   256
176
     0
 40
1.0
176
     0
 90
        2
176
     1
  1
strokes_ogs.tif
176
     1
290
     0
176
     1
 40
1.0
176
     1
 40
1.0
176
     1
  0
VISUALSTYLE
  5
3B
102
{ACAD_REACTORS
330
2A
102
}
330
2A
100
AcDbVisualStyle
  2
JitterOff
 70
    20
177
     3
291
     1
 70
    58
 90
        2
176
     0
 90
        2
176
     0
 90
        0
176
     0
 90
        0
176
     0
 40
0.6
176
     0
 40
30.0
176
     0
 62
     7
420
 16777215
176
     0
 90
        1
176
     0
 90
        4
176
     0
 62
     7
176
     0
 62
   257
176
     0
 90
        1
176
     0
 90
        1
176
     0
 40
1.0
176
     0
 90
       10
176
     2
 62
     7
176
     0
 40
1.0
176
     0
 90
        1
176
     0
 90
        6
176
     0
 90
        2
176
     0
 62
     7
176
     0
 90
        5
176
     0
 90
        0
176
     0
 90
        0
176
     0
290
     0
176
     0
 90
        1
176
     0
 40
0.0
176
     0
 90
        0
176
     0
290
     0
176
     0
290
     1
176
     0
290
     1
176
     0
290
     0
176
     0
290
     0
176
     0
290
     0
176
     0
290
     0
176
     0
290
     0
176
     0
290
     0
176
     0
 90
       50
176
     0
 40
0.0
176
     0
 40
1.0
176
     0
 90
        0
176
     0
 62
    18
420
        0
176
     0
 90
       50
176
     0
 90
        3
176
     0
 62
     5
420
      255
176
     0
290
     0
176
     0
 90
       50
176
     0
 90
       50
176
     0
 90
       50
176
     0
290
     0
176
     0
 90
       50
176
     0
 62
   256
176
     0
 40
1.0
176
     0
 90
        2
176
     0
  1
strokes_ogs.tif
176
     0
290
     0
176
     0
 40
1.0
176
     0
 40
1.0
176
     0
  0
VISUALSTYLE
  5
38
102
{ACAD_REACTORS
330
2A
102
}
330
2A
100
AcDbVisualStyle
  2
Linepattern
 70
    14
177
     3
291
     1
 70
    58
 90
        2
176
     1
 90
        2
176
     1
 90
        0
176
     1
 90
        0
176
     1
 40
0.6
176
     1
 40
30.0
176
     1
 62
     7
420
 16777215
176
     1
 90
        1
176
     1
 90
        4
176
     1
 62
     7
176
     1
 62
   257
176
     1
 90
        7
176
     1
 90
        7
176
     1
 40
1.0
176
     1
 90
        8
176
     1
 62
     7
176
     1
 40
1.0
176
     1
 90
        1
176
     1
 90
        6
176
     1
 90
        2
176
     1
 62
     7
176
     1
 90
        5
176
     1
 90
        0
176
     1
 90
        0
176
     1
290
     0
176
     1
 90
        1
176
     1
 40
0.0
176
     1
 90
        0
176
     1
290
     0
176
     1
290
     1
176
     1
290
     1
176
     1
290
     0
176
     1
290
     0
176
     1
290
     0
176
     1
290
     0
176
     1
290
     0
176
     1
290
     0
176
     1
 90
       50
176
     1
 40
0.0
176
     1
 40
1.0
176
     1
 90
        0
176
     1
 62
    18
420
        0
176
     1
 90
       50
176
     1
 90
        3
176
     1
 62
     5
420
      255
176
     1
290
     0
176
     1
 90
       50
176
     1
 90
       50
176
     1
 90
       50
176
     1
290
     0
176
     1
 90
       50
176
     1
 62
   256
176
     0
 40
1.0
176
     0
 90
        2
176
     1
  1
strokes_ogs.tif
176
     1
290
     0
176
     1
 40
1.0
176
     1
 40
1.0
176
     1
  0
VISUALSTYLE
  5
3C
102
{ACAD_REACTORS
330
2A
102
}
330
2A
100
AcDbVisualStyle
  2
OverhangOff
 70
    21
177
     3
291
     1
 70
    58
 90
        2
176
     0
 90
        2
176
     0
 90
        0
176
     0
 90
        0
176
     0
 40
0.6
176
     0
 40
30.0
176
     0
 62
     7
420
 16777215
176
     0
 90
        1
176
     0
 90
        4
176
     0
 62
     7
176
     0
 62
   257
176
     0
 90
        1
176
     0
 90
        1
176
     0
 40
1.0
176
     0
 90
        9
176
     2
 62
     7
176
     0
 40
1.0
176
     0
 90
        1
176
     0
 90
        6
176
     0
 90
        2
176
     0
 62
     7
176
     0
 90
        5
176
     0
 90
        0
176
     0
 90
        0
176
     0
290
     0
176
     0
 90
        1
176
     0
 40
0.0
176
     0
 90
        0
176
     0
290
     0
176
     0
290
     1
176
     0
290
     1
176
     0
290
     0
176
     0
290
     0
176
     0
290
     0
176
     0
290
     0
176
     0
290
     0
176
     0
290
     0
176
     0
 90
       50
176
     0
 40
0.0
176
     0
 40
1.0
176
     0
 90
        0
176
     0
 62
    18
420
        0
176
     0
 90
       50
176
     0
 90
        3
176
     0
 62
     5
420
      255
176
     0
290
     0
176
     0
 90
       50
176
     0
 90
       50
176
     0
 90
       50
176
     0
290
     0
176
     0
 90
       50
176
     0
 62
   256
176
     0
 40
1.0
176
     0
 90
        2
176
     0
  1
strokes_ogs.tif
176
     0
290
     0
176
     0
 40
1.0
176
     0
 40
1.0
176
     0
  0
VISUALSTYLE
  5
33
102
{ACAD_REACTORS
330
2A
102
}
330
2A
100
AcDbVisualStyle
  2
Realistic
 70
     8
177
     3
291
     0
 70
    58
 90
        2
176
     1
 90
        3
176
     1
 90
        0
176
     1
 90
        2
176
     1
 40
0.6
176
     1
 40
30.0
176
     1
 62
     7
420
 16777215
176
     1
 90
        0
176
     1
 90
        0
176
     1
 62
     7
176
     1
 62
   257
176
     1
 90
        1
176
     1
 90
        1
176
     1
 40
1.0
176
     1
 90
        8
176
     1
 62
   257
176
     1
 40
1.0
176
     1
 90
        1
176
     1
 90
        6
176
     1
 90
        2
176
     1
 62
     7
176
     1
 90
        3
176
     1
 90
        0
176
     1
 90
        0
176
     1
290
     0
176
     1
 90
       13
176
     1
 40
0.0
176
     1
 90
        0
176
     1
290
     0
176
     1
290
     1
176
     1
290
     1
176
     1
290
     0
176
     1
290
     0
176
     1
290
     0
176
     1
290
     0
176
     1
290
     0
176
     1
290
     0
176
     1
 90
       50
176
     1
 40
0.0
176
     1
 40
1.0
176
     1
 90
        0
176
     1
 62
    18
420
        0
176
     1
 90
       50
176
     1
 90
        3
176
     1
 62
     5
420
      255
176
     1
290
     0
176
     1
 90
       50
176
     1
 90
       50
176
     1
 90
       50
176
     1
290
     0
176
     1
 90
       50
176
     1
 62
   256
176
     0
 40
1.0
176
     0
 90
        2
176
     1
  1
strokes_ogs.tif
176
     1
290
     0
176
     1
 40
1.0
176
     1
 40
1.0
176
     1
  0
VISUALSTYLE
  5
42
102
{ACAD_REACTORS
330
2A
102
}
330
2A
100
AcDbVisualStyle
  2
Shaded
 70
    27
177
     3
291
     0
 70
    58
 90
        2
176
     1
 90
        2
176
     1
 90
        1
176
     1
 90
        2
176
     1
 40
0.6
176
     1
 40
30.0
176
     1
 62
     7
420
 16777215
176
     1
 90
        0
176
     1
 90
        4
176
     1
 62
     7
176
     1
 62
   257
176
     1
 90
        1
176
     1
 90
        1
176
     1
 40
1.0
176
     1
 90
        8
176
     1
 62
   257
176
     1
 40
1.0
176
     1
 90
        1
176
     1
 90
        6
176
     1
 90
        2
176
     1
 62
     8
420
  7895160
176
     1
 90
        3
176
     1
 90
        0
176
     1
 90
        0
176
     1
290
     0
176
     1
 90
        5
176
     1
 40
0.0
176
     1
 90
        0
176
     1
290
     0
176
     1
290
     1
176
     1
290
     1
176
     1
290
     0
176
     1
290
     0
176
     1
290
     0
176
     1
290
     0
176
     1
290
     0
176
     1
290
     0
176
     1
 90
       50
176
     1
 40
0.0
176
     1
 40
1.0
176
     1
 90
        0
176
     1
 62
    18
420
        0
176
     1
 90
       50
176
     1
 90
        3
176
     1
 62
     5
420
      255
176
     1
290
     0
176
     1
 90
       50
176
     1
 90
       50
176
     1
 90
       50
176
     1
290
     0
176
     1
 90
       50
176
     1
 62
   256
176
     0
 40
1.0
176
     0
 90
        2
176
     1
  1
strokes_ogs.tif
176
     1
290
     0
176
     1
 40
1.0
176
     1
 40
1.0
176
     1
  0
VISUALSTYLE
  5
41
102
{ACAD_REACTORS
330
2A
102
}
330
2A
100
AcDbVisualStyle
  2
Shaded with edges
 70
    26
177
     3
291
     0
 70
    58
 90
        2
176
     1
 90
        2
176
     1
 90
        1
176
     1
 90
        2
176
     1
 40
0.6
176
     1
 40
30.0
176
     1
 62
     7
420
 16777215
176
     1
 90
        1
176
     1
 90
       10
176
     1
 62
     7
176
     1
 62
   257
176
     1
 90
        2
176
     1
 90
        1
176
     1
 40
1.0
176
     1
 90
        8
176
     1
 62
   257
176
     1
 40
1.0
176
     1
 90
        1
176
     1
 90
        6
176
     1
 90
        2
176
     1
 62
     7
176
     1
 90
        3
176
     1
 90
        0
176
     1
 90
        0
176
     1
290
     0
176
     1
 90
        5
176
     1
 40
0.0
176
     1
 90
        0
176
     1
290
     0
176
     1
290
     1
176
     1
290
     1
176
     1
290
     0
176
     1
290
     0
176
     1
290
     0
176
     1
290
     0
176
     1
290
     0
176
     1
290
     0
176
     1
 90
       50
176
     1
 40
0.0
176
     1
 40
1.0
176
     1
 90
        0
176
     1
 62
    18
420
        0
176
     1
 90
       50
176
     1
 90
        3
176
     1
 62
     5
420
      255
176
     1
290
     0
176
     1
 90
       50
176
     1
 90
       50
176
     1
 90
       50
176
     1
290
     0
176
     1
 90
       50
176
     1
 62
   256
176
     0
 40
1.0
176
     0
 90
        2
176
     1
  1
strokes_ogs.tif
176
     1
290
     0
176
     1
 40
1.0
176
     1
 40
1.0
176
     1
  0
VISUALSTYLE
  5
3E
102
{ACAD_REACTORS
330
2A
102
}
330
2A
100
AcDbVisualStyle
  2
Shades of Gray
 70
    23
177
     3
291
     0
 70
    58
 90
        2
176
     1
 90
        2
176
     1
 90
        3
176
     1
 90
        0
176
     1
 40
0.6
176
     1
 40
30.0
176
     1
 62
     7
420
 16777215
176
     1
 90
        2
176
     1
 90
        2
176
     1
 62
     7
176
     1
 62
     7
176
     1
 90
        1
176
     1
 90
        1
176
     1
 40
40.0
176
     1
 90
        8
176
     1
 62
     7
176
     1
 40
1.0
176
     1
 90
        1
176
     1
 90
        6
176
     1
 90
        2
176
     1
 62
     7
176
     1
 90
        3
176
     1
 90
        0
176
     1
 90
        0
176
     1
290
     0
176
     1
 90
        1
176
     1
 40
0.0
176
     1
 90
        0
176
     1
290
     0
176
     1
290
     1
176
     1
290
     1
176
     1
290
     0
176
     1
290
     0
176
     1
290
     0
176
     1
290
     0
176
     1
290
     0
176
     1
290
     0
176
     1
 90
       50
176
     1
 40
0.0
176
     1
 40
1.0
176
     1
 90
        0
176
     1
 62
    18
420
        0
176
     1
 90
       50
176
     1
 90
        3
176
     1
 62
     5
420
      255
176
     1
290
     0
176
     1
 90
       50
176
     1
 90
       50
176
     1
 90
       50
176
     1
290
     0
176
     1
 90
       50
176
     1
 62
   256
176
     0
 40
1.0
176
     0
 90
        2
176
     1
  1
strokes_ogs.tif
176
     1
290
     0
176
     1
 40
1.0
176
     1
 40
1.0
176
     1
  0
VISUALSTYLE
  5
3F
102
{ACAD_REACTORS
330
2A
102
}
330
2A
100
AcDbVisualStyle
  2
Sketchy
 70
    24
177
     3
291
     0
 70
    58
 90
        1
176
     1
 90
        2
176
     1
 90
        2
176
     1
 90
        0
176
     1
 40
0.6
176
     1
 40
30.0
176
     1
 62
     7
420
 16777215
176
     1
 90
        2
176
     1
 90
        2
176
     1
 62
     7
176
     1
 62
     7
176
     1
 90
        1
176
     1
 90
        1
176
     1
 40
40.0
176
     1
 90
       11
176
     1
 62
     7
176
     1
 40
1.0
176
     1
 90
        1
176
     1
 90
        6
176
     1
 90
        2
176
     1
 62
     7
176
     1
 90
        6
176
     1
 90
        0
176
     1
 90
        0
176
     1
290
     0
176
     1
 90
        1
176
     1
 40
0.0
176
     1
 90
        0
176
     1
290
     0
176
     1
290
     1
176
     1
290
     1
176
     1
290
     0
176
     1
290
     0
176
     1
290
     0
176
     1
290
     0
176
     1
290
     0
176
     1
290
     0
176
     1
 90
       50
176
     1
 40
0.0
176
     1
 40
1.0
176
     1
 90
        0
176
     1
 62
    18
420
        0
176
     1
 90
       50
176
     1
 90
        3
176
     1
 62
     5
420
      255
176
     1
290
     0
176
     1
 90
       50
176
     1
 90
       50
176
     1
 90
       50
176
     1
290
     0
176
     1
 90
       50
176
     1
 62
   256
176
     0
 40
1.0
176
     0
 90
        2
176
     1
  1
strokes_ogs.tif
176
     1
290
     0
176
     1
 40
1.0
176
     1
 40
1.0
176
     1
  0
VISUALSTYLE
  5
37
102
{ACAD_REACTORS
330
2A
102
}
330
2A
100
AcDbVisualStyle
  2
Thicken
 70
    13
177
     3
291
     1
 70
    58
 90
        2
176
     1
 90
        2
176
     1
 90
        0
176
     1
 90
        0
176
     1
 40
0.6
176
     1
 40
30.0
176
     1
 62
     7
420
 16777215
176
     1
 90
        1
176
     1
 90
        4
176
     1
 62
     7
176
     1
 62
   257
176
     1
 90
        1
176
     1
 90
        1
176
     1
 40
1.0
176
     1
 90
       12
176
     1
 62
     7
176
     1
 40
1.0
176
     1
 90
        1
176
     1
 90
        6
176
     1
 90
        2
176
     1
 62
     7
176
     1
 90
        5
176
     1
 90
        0
176
     1
 90
        0
176
     1
290
     0
176
     1
 90
        1
176
     1
 40
0.0
176
     1
 90
        0
176
     1
290
     0
176
     1
290
     1
176
     1
290
     1
176
     1
290
     0
176
     1
290
     0
176
     1
290
     0
176
     1
290
     0
176
     1
290
     0
176
     1
290
     0
176
     1
 90
       50
176
     1
 40
0.0
176
     1
 40
1.0
176
     1
 90
        0
176
     1
 62
    18
420
        0
176
     1
 90
       50
176
     1
 90
        3
176
     1
 62
     5
420
      255
176
     1
290
     0
176
     1
 90
       50
176
     1
 90
       50
176
     1
 90
       50
176
     1
290
     0
176
     1
 90
       50
176
     1
 62
   256
176
     0
 40
1.0
176
     0
 90
        2
176
     1
  1
strokes_ogs.tif
176
     1
290
     0
176
     1
 40
1.0
176
     1
 40
1.0
176
     1
  0
VISUALSTYLE
  5
30
102
{ACAD_REACTORS
330
2A
102
}
330
2A
100
AcDbVisualStyle
  2
Wireframe
 70
     5
177
     3
291
     0
 70
    58
 90
        0
176
     1
 90
        2
176
     1
 90
        0
176
     1
 90
        0
176
     1
 40
0.6
176
     1
 40
30.0
176
     1
 62
     7
420
 16777215
176
     1
 90
        1
176
     1
 90
        4
176
     1
 62
     7
176
     1
 62
   257
176
     1
 90
        1
176
     1
 90
        1
176
     1
 40
1.0
176
     1
 90
        0
176
     1
 62
   257
176
     1
 40
1.0
176
     1
 90
        1
176
     1
 90
        6
176
     1
 90
        2
176
     1
 62
     7
176
     1
 90
        3
176
     1
 90
        0
176
     1
 90
        0
176
     1
290
     0
176
     1
 90
        1
176
     1
 40
0.0
176
     1
 90
        0
176
     1
290
     0
176
     1
290
     1
176
     1
290
     1
176
     1
290
     0
176
     1
290
     0
176
     1
290
     0
176
     1
290
     0
176
     1
290
     0
176
     1
290
     0
176
     1
 90
       50
176
     1
 40
0.0
176
     1
 40
1.0
176
     1
 90
        0
176
     1
 62
    18
420
        0
176
     1
 90
       50
176
     1
 90
        3
176
     1
 62
     5
420
      255
176
     1
290
     0
176
     1
 90
       50
176
     1
 90
       50
176
     1
 90
       50
176
     1
290
     0
176
     1
 90
       50
176
     1
 62
   256
176
     0
 40
1.0
176
     0
 90
        2
176
     1
  1
strokes_ogs.tif
176
     1
290
     0
176
     1
 40
1.0
176
     1
 40
1.0
176
     1
  0
VISUALSTYLE
  5
40
102
{ACAD_REACTORS
330
2A
102
}
330
2A
100
AcDbVisualStyle
  2
X-Ray
 70
    25
177
     3
291
     0
 70
    58
 90
        2
176
     1
 90
        2
176
     1
 90
        1
176
     1
 90
        1
176
     1
 40
0.5
176
     1
 40
30.0
176
     1
 62
     7
420
 16777215
176
     1
 90
        1
176
     1
 90
        0
176
     1
 62
     7
176
     1
 62
   257
176
     1
 90
        1
176
     1
 90
        1
176
     1
 40
1.0
176
     1
 90
        8
176
     1
 62
     7
176
     1
 40
1.0
176
     1
 90
        1
176
     1
 90
        6
176
     1
 90
        2
176
     1
 62
     7
176
     1
 90
        3
176
     1
 90
        0
176
     1
 90
        0
176
     1
290
     0
176
     1
 90
       13
176
     1
 40
0.0
176
     1
 90
        0
176
     1
290
     0
176
     1
290
     1
176
     1
290
     1
176
     1
290
     0
176
     1
290
     0
176
     1
290
     0
176
     1
290
     0
176
     1
290
     0
176
     1
290
     0
176
     1
 90
       50
176
     1
 40
0.0
176
     1
 40
1.0
176
     1
 90
        0
176
     1
 62
    18
420
        0
176
     1
 90
       50
176
     1
 90
        3
176
     1
 62
     5
420
      255
176
     1
290
     0
176
     1
 90
       50
176
     1
 90
       50
176
     1
 90
       50
176
     1
290
     0
176
     1
 90
       50
176
     1
 62
   256
176
     0
 40
1.0
176
     0
 90
        2
176
     1
  1
strokes_ogs.tif
176
     1
290
     0
176
     1
 40
1.0
176
     1
 40
1.0
176
     1
  0
DICTIONARYVAR
  5
9F
102
{ACAD_REACTORS
330
9E
102
}
330
9E
100
DictionaryVariables
280
     0
  1
1:1
  0
DICTIONARYVAR
  5
A7
102
{ACAD_REACTORS
330
9E
102
}
330
9E
100
DictionaryVariables
280
     0
  1
3.500000
  0
DICTIONARYVAR
  5
A8
102
{ACAD_REACTORS
330
9E
102
}
330
9E
100
DictionaryVariables
280
     0
  1
acadiso.lin
  0
DICTIONARYVAR
  5
A4
102
{ACAD_REACTORS
330
9E
102
}
330
9E
100
DictionaryVariables
280
     0
  1
Standard
  0
DICTIONARYVAR
  5
A3
102
{ACAD_REACTORS
330
9E
102
}
330
9E
100
DictionaryVariables
280
     0
  1
Standard
  0
DICTIONARY
  5
A0
330
5A
100
AcDbDictionary
280
     1
281
     1
  3
ACAD_ROUNDTRIP_2008_TABLESTYLE_CELLSTYLEMAP
360
A1
  0
CELLSTYLEMAP
  5
A1
102
{ACAD_REACTORS
330
A0
102
}
330
A0
100
AcDbCellStyleMap
 90
        3
300
CELLSTYLE
  1
TABLEFORMAT_BEGIN
 90
        5
170
     1
 91
        0
 92
    32768
 62
   257
 93
        1
300
CONTENTFORMAT
  1
CONTENTFORMAT_BEGIN
 90
        0
 91
        0
 92
        4
 93
        0
300

 40
0.0
140
1.0
 94
        5
 62
     0
340
11
144
6.0
309
CONTENTFORMAT_END
171
     1
301
MARGIN
  1
CELLMARGIN_BEGIN
 40
1.5
 40
1.5
 40
1.5
 40
1.5
 40
1.5
 40
1.5
309
CELLMARGIN_END
 94
        6
 95
        1
302
GRIDFORMAT
  1
GRIDFORMAT_BEGIN
 90
        0
 91
        1
 62
     0
 92
       -2
340
14
 93
        0
 40
0.045
309
GRIDFORMAT_END
 95
        2
302
GRIDFORMAT
  1
GRIDFORMAT_BEGIN
 90
        0
 91
        1
 62
     0
 92
       -2
340
14
 93
        0
 40
0.045
309
GRIDFORMAT_END
 95
        4
302
GRIDFORMAT
  1
GRIDFORMAT_BEGIN
 90
        0
 91
        1
 62
     0
 92
       -2
340
14
 93
        0
 40
0.045
309
GRIDFORMAT_END
 95
        8
302
GRIDFORMAT
  1
GRIDFORMAT_BEGIN
 90
        0
 91
        1
 62
     0
 92
       -2
340
14
 93
        0
 40
0.045
309
GRIDFORMAT_END
 95
       16
302
GRIDFORMAT
  1
GRIDFORMAT_BEGIN
 90
        0
 91
        1
 62
     0
 92
       -2
340
14
 93
        0
 40
0.045
309
GRIDFORMAT_END
 95
       32
302
GRIDFORMAT
  1
GRIDFORMAT_BEGIN
 90
        0
 91
        1
 62
     0
 92
       -2
340
14
 93
        0
 40
0.045
309
GRIDFORMAT_END
309
TABLEFORMAT_END
  1
CELLSTYLE_BEGIN
 90
        1
 91
        1
300
_TITLE
309
CELLSTYLE_END
300
CELLSTYLE
  1
TABLEFORMAT_BEGIN
 90
        5
170
     1
 91
        0
 92
        0
 62
   257
 93
        1
300
CONTENTFORMAT
  1
CONTENTFORMAT_BEGIN
 90
        0
 91
        0
 92
        4
 93
        0
300

 40
0.0
140
1.0
 94
        5
 62
     0
340
11
144
4.5
309
CONTENTFORMAT_END
171
     1
301
MARGIN
  1
CELLMARGIN_BEGIN
 40
1.5
 40
1.5
 40
1.5
 40
1.5
 40
1.5
 40
1.5
309
CELLMARGIN_END
 94
        6
 95
        1
302
GRIDFORMAT
  1
GRIDFORMAT_BEGIN
 90
        0
 91
        1
 62
     0
 92
       -2
340
14
 93
        0
 40
0.045
309
GRIDFORMAT_END
 95
        2
302
GRIDFORMAT
  1
GRIDFORMAT_BEGIN
 90
        0
 91
        1
 62
     0
 92
       -2
340
14
 93
        0
 40
0.045
309
GRIDFORMAT_END
 95
        4
302
GRIDFORMAT
  1
GRIDFORMAT_BEGIN
 90
        0
 91
        1
 62
     0
 92
       -2
340
14
 93
        0
 40
0.045
309
GRIDFORMAT_END
 95
        8
302
GRIDFORMAT
  1
GRIDFORMAT_BEGIN
 90
        0
 91
        1
 62
     0
 92
       -2
340
14
 93
        0
 40
0.045
309
GRIDFORMAT_END
 95
       16
302
GRIDFORMAT
  1
GRIDFORMAT_BEGIN
 90
        0
 91
        1
 62
     0
 92
       -2
340
14
 93
        0
 40
0.045
309
GRIDFORMAT_END
 95
       32
302
GRIDFORMAT
  1
GRIDFORMAT_BEGIN
 90
        0
 91
        1
 62
     0
 92
       -2
340
14
 93
        0
 40
0.045
309
GRIDFORMAT_END
309
TABLEFORMAT_END
  1
CELLSTYLE_BEGIN
 90
        2
 91
        1
300
_HEADER
309
CELLSTYLE_END
300
CELLSTYLE
  1
TABLEFORMAT_BEGIN
 90
        5
170
     1
 91
        0
 92
        0
 62
   257
 93
        1
300
CONTENTFORMAT
  1
CONTENTFORMAT_BEGIN
 90
        0
 91
        0
 92
        4
 93
        0
300

 40
0.0
140
1.0
 94
        2
 62
     0
340
11
144
4.5
309
CONTENTFORMAT_END
171
     1
301
MARGIN
  1
CELLMARGIN_BEGIN
 40
1.5
 40
1.5
 40
1.5
 40
1.5
 40
1.5
 40
1.5
309
CELLMARGIN_END
 94
        6
 95
        1
302
GRIDFORMAT
  1
GRIDFORMAT_BEGIN
 90
        0
 91
        1
 62
     0
 92
       -2
340
14
 93
        0
 40
0.045
309
GRIDFORMAT_END
 95
        2
302
GRIDFORMAT
  1
GRIDFORMAT_BEGIN
 90
        0
 91
        1
 62
     0
 92
       -2
340
14
 93
        0
 40
0.045
309
GRIDFORMAT_END
 95
        4
302
GRIDFORMAT
  1
GRIDFORMAT_BEGIN
 90
        0
 91
        1
 62
     0
 92
       -2
340
14
 93
        0
 40
0.045
309
GRIDFORMAT_END
 95
        8
302
GRIDFORMAT
  1
GRIDFORMAT_BEGIN
 90
        0
 91
        1
 62
     0
 92
       -2
340
14
 93
        0
 40
0.045
309
GRIDFORMAT_END
 95
       16
302
GRIDFORMAT
  1
GRIDFORMAT_BEGIN
 90
        0
 91
        1
 62
     0
 92
       -2
340
14
 93
        0
 40
0.045
309
GRIDFORMAT_END
 95
       32
302
GRIDFORMAT
  1
GRIDFORMAT_BEGIN
 90
        0
 91
        1
 62
     0
 92
       -2
340
14
 93
        0
 40
0.045
309
GRIDFORMAT_END
309
TABLEFORMAT_END
  1
CELLSTYLE_BEGIN
 90
        3
 91
        2
300
_DATA
309
CELLSTYLE_END
  0
ENDSEC
  0
EOF
