  0
SECTION
  2
HEADER
  9
$ACADVER
  1
AC1027
  9
$ACADMAINTVER
 70
   105
  9
$DWGCODEPAGE
  3
ANSI_932
  9
$LASTSAVEDBY
  1
a.yasuda
  9
$REQUIREDVERSIONS
160
                 0
  9
$INSBASE
 10
0.0
 20
0.0
 30
0.0
  9
$EXTMIN
 10
0.0
 20
0.0
 30
0.0
  9
$EXTMAX
 10
302.9997823349792
 20
216.0016055409748
 30
0.0
  9
$LIMMIN
 10
0.0
 20
0.0
  9
$LIMMAX
 10
302.9997823349792
 20
216.0016055409748
  9
$ORTHOMODE
 70
     0
  9
$REGENMODE
 70
     1
  9
$FILLMODE
 70
     1
  9
$QTEXTMODE
 70
     0
  9
$MIRRTEXT
 70
     1
  9
$LTSCALE
 40
1.0
  9
$ATTMODE
 70
     1
  9
$TEXTSIZE
 40
2.5
  9
$TRACEWID
 40
1.0
  9
$TEXTSTYLE
  7
Standard
  9
$CLAYER
  8
0
  9
$CELTYPE
  6
ByLayer
  9
$CECOLOR
 62
   256
  9
$CELTSCALE
 40
1.0
  9
$DISPSILH
 70
     0
  9
$DIMSCALE
 40
1.0
  9
$DIMASZ
 40
2.5
  9
$DIMEXO
 40
0.625
  9
$DIMDLI
 40
3.75
  9
$DIMRND
 40
0.0
  9
$DIMDLE
 40
0.0
  9
$DIMEXE
 40
1.25
  9
$DIMTP
 40
0.0
  9
$DIMTM
 40
0.0
  9
$DIMTXT
 40
2.5
  9
$DIMCEN
 40
2.5
  9
$DIMTSZ
 40
0.0
  9
$DIMTOL
 70
     0
  9
$DIMLIM
 70
     0
  9
$DIMTIH
 70
     0
  9
$DIMTOH
 70
     0
  9
$DIMSE1
 70
     0
  9
$DIMSE2
 70
     0
  9
$DIMTAD
 70
     1
  9
$DIMZIN
 70
     8
  9
$DIMBLK
  1

  9
$DIMASO
 70
     1
  9
$DIMSHO
 70
     1
  9
$DIMPOST
  1

  9
$DIMAPOST
  1

  9
$DIMALT
 70
     0
  9
$DIMALTD
 70
     3
  9
$DIMALTF
 40
0.03937007874016
  9
$DIMLFAC
 40
1.0
  9
$DIMTOFL
 70
     1
  9
$DIMTVP
 40
0.0
  9
$DIMTIX
 70
     0
  9
$DIMSOXD
 70
     0
  9
$DIMSAH
 70
     0
  9
$DIMBLK1
  1

  9
$DIMBLK2
  1

  9
$DIMSTYLE
  2
ISO-25
  9
$DIMCLRD
 70
     0
  9
$DIMCLRE
 70
     0
  9
$DIMCLRT
 70
     0
  9
$DIMTFAC
 40
1.0
  9
$DIMGAP
 40
0.625
  9
$DIMJUST
 70
     0
  9
$DIMSD1
 70
     0
  9
$DIMSD2
 70
     0
  9
$DIMTOLJ
 70
     0
  9
$DIMTZIN
 70
     8
  9
$DIMALTZ
 70
     0
  9
$DIMALTTZ
 70
     0
  9
$DIMUPT
 70
     0
  9
$DIMDEC
 70
     2
  9
$DIMTDEC
 70
     2
  9
$DIMALTU
 70
     2
  9
$DIMALTTD
 70
     3
  9
$DIMTXSTY
  7
Standard
  9
$DIMAUNIT
 70
     0
  9
$DIMADEC
 70
     0
  9
$DIMALTRND
 40
0.0
  9
$DIMAZIN
 70
     0
  9
$DIMDSEP
 70
    44
  9
$DIMATFIT
 70
     3
  9
$DIMFRAC
 70
     0
  9
$DIMLDRBLK
  1

  9
$DIMLUNIT
 70
     2
  9
$DIMLWD
 70
    -2
  9
$DIMLWE
 70
    -2
  9
$DIMTMOVE
 70
     0
  9
$DIMFXL
 40
1.0
  9
$DIMFXLON
 70
     0
  9
$DIMJOGANG
 40
0.7853981633974483
  9
$DIMTFILL
 70
     0
  9
$DIMTFILLCLR
 70
     0
  9
$DIMARCSYM
 70
     0
  9
$DIMLTYPE
  6

  9
$DIMLTEX1
  6

  9
$DIMLTEX2
  6

  9
$DIMTXTDIRECTION
 70
     0
  9
$LUNITS
 70
     2
  9
$LUPREC
 70
     4
  9
$SKETCHINC
 40
1.0
  9
$FILLETRAD
 40
0.0
  9
$AUNITS
 70
     0
  9
$AUPREC
 70
     0
  9
$MENU
  1
.
  9
$ELEVATION
 40
0.0
  9
$PELEVATION
 40
0.0
  9
$THICKNESS
 40
0.0
  9
$LIMCHECK
 70
     0
  9
$CHAMFERA
 40
0.0
  9
$CHAMFERB
 40
0.0
  9
$CHAMFERC
 40
0.0
  9
$CHAMFERD
 40
0.0
  9
$SKPOLY
 70
     0
  9
$TDCREATE
 40
2459866.618881505
  9
$TDUCREATE
 40
2459866.243881505
  9
$TDUPDATE
 40
2459866.618881551
  9
$TDUUPDATE
 40
2459866.243881551
  9
$TDINDWG
 40
0.0000000116
  9
$TDUSRTIMER
 40
0.0000000116
  9
$USRTIMER
 70
     1
  9
$ANGBASE
 50
0.0
  9
$ANGDIR
 70
     0
  9
$PDMODE
 70
     0
  9
$PDSIZE
 40
0.0
  9
$PLINEWID
 40
0.0
  9
$SPLFRAME
 70
     0
  9
$SPLINETYPE
 70
     6
  9
$SPLINESEGS
 70
     8
  9
$HANDSEED
  5
A7
  9
$SURFTAB1
 70
     6
  9
$SURFTAB2
 70
     6
  9
$SURFTYPE
 70
     6
  9
$SURFU
 70
     6
  9
$SURFV
 70
     6
  9
$UCSBASE
  2

  9
$UCSNAME
  2

  9
$UCSORG
 10
0.0
 20
0.0
 30
0.0
  9
$UCSXDIR
 10
1.0
 20
0.0
 30
0.0
  9
$UCSYDIR
 10
0.0
 20
1.0
 30
0.0
  9
$UCSORTHOREF
  2

  9
$UCSORTHOVIEW
 70
     0
  9
$UCSORGTOP
 10
0.0
 20
0.0
 30
0.0
  9
$UCSORGBOTTOM
 10
0.0
 20
0.0
 30
0.0
  9
$UCSORGLEFT
 10
0.0
 20
0.0
 30
0.0
  9
$UCSORGRIGHT
 10
0.0
 20
0.0
 30
0.0
  9
$UCSORGFRONT
 10
0.0
 20
0.0
 30
0.0
  9
$UCSORGBACK
 10
0.0
 20
0.0
 30
0.0
  9
$PUCSBASE
  2

  9
$PUCSNAME
  2

  9
$PUCSORG
 10
0.0
 20
0.0
 30
0.0
  9
$PUCSXDIR
 10
1.0
 20
0.0
 30
0.0
  9
$PUCSYDIR
 10
0.0
 20
1.0
 30
0.0
  9
$PUCSORTHOREF
  2

  9
$PUCSORTHOVIEW
 70
     0
  9
$PUCSORGTOP
 10
0.0
 20
0.0
 30
0.0
  9
$PUCSORGBOTTOM
 10
0.0
 20
0.0
 30
0.0
  9
$PUCSORGLEFT
 10
0.0
 20
0.0
 30
0.0
  9
$PUCSORGRIGHT
 10
0.0
 20
0.0
 30
0.0
  9
$PUCSORGFRONT
 10
0.0
 20
0.0
 30
0.0
  9
$PUCSORGBACK
 10
0.0
 20
0.0
 30
0.0
  9
$USERI1
 70
     0
  9
$USERI2
 70
     0
  9
$USERI3
 70
     0
  9
$USERI4
 70
     0
  9
$USERI5
 70
     0
  9
$USERR1
 40
0.0
  9
$USERR2
 40
0.0
  9
$USERR3
 40
0.0
  9
$USERR4
 40
0.0
  9
$USERR5
 40
0.0
  9
$WORLDVIEW
 70
     1
  9
$SHADEDGE
 70
     3
  9
$SHADEDIF
 70
    70
  9
$TILEMODE
 70
     1
  9
$MAXACTVP
 70
    64
  9
$PINSBASE
 10
0.0
 20
0.0
 30
0.0
  9
$PLIMCHECK
 70
     0
  9
$PEXTMIN
 10
1.000000000000000E+20
 20
1.000000000000000E+20
 30
1.000000000000000E+20
  9
$PEXTMAX
 10
-1.000000000000000E+20
 20
-1.000000000000000E+20
 30
-1.000000000000000E+20
  9
$PLIMMIN
 10
0.0
 20
0.0
  9
$PLIMMAX
 10
420.0
 20
297.0
  9
$UNITMODE
 70
     0
  9
$VISRETAIN
 70
     1
  9
$PLINEGEN
 70
     0
  9
$PSLTSCALE
 70
     1
  9
$TREEDEPTH
 70
  3020
  9
$CMLSTYLE
  2
Standard
  9
$CMLJUST
 70
     0
  9
$CMLSCALE
 40
20.0
  9
$PROXYGRAPHICS
 70
     1
  9
$MEASUREMENT
 70
     1
  9
$CELWEIGHT
370
    -1
  9
$ENDCAPS
280
     0
  9
$JOINSTYLE
280
     0
  9
$LWDISPLAY
290
     0
  9
$INSUNITS
 70
     4
  9
$HYPERLINKBASE
  1

  9
$STYLESHEET
  1

  9
$XEDIT
290
     1
  9
$CEPSNTYPE
380
     0
  9
$PSTYLEMODE
290
     1
  9
$FINGERPRINTGUID
  2
{b60a6907-041b-41c7-addc-b139624193fe}
  9
$VERSIONGUID
  2
{FAEB1C32-E019-11D5-929B-00C0DF256EC4}
  9
$EXTNAMES
290
     1
  9
$PSVPSCALE
 40
0.0
  9
$OLESTARTUP
290
     0
  9
$SORTENTS
280
   127
  9
$INDEXCTL
280
     0
  9
$HIDETEXT
280
     1
  9
$XCLIPFRAME
280
     2
  9
$HALOGAP
280
     0
  9
$OBSCOLOR
 70
   257
  9
$OBSLTYPE
280
     0
  9
$INTERSECTIONDISPLAY
280
     0
  9
$INTERSECTIONCOLOR
 70
   257
  9
$DIMASSOC
280
     2
  9
$PROJECTNAME
  1

  9
$CAMERADISPLAY
290
     0
  9
$LENSLENGTH
 40
50.0
  9
$CAMERAHEIGHT
 40
0.0
  9
$STEPSPERSEC
 40
2.0
  9
$STEPSIZE
 40
6.0
  9
$3DDWFPREC
 40
2.0
  9
$PSOLWIDTH
 40
5.0
  9
$PSOLHEIGHT
 40
80.0
  9
$LOFTANG1
 40
1.570796326794897
  9
$LOFTANG2
 40
1.570796326794897
  9
$LOFTMAG1
 40
0.0
  9
$LOFTMAG2
 40
0.0
  9
$LOFTPARAM
 70
     7
  9
$LOFTNORMALS
280
     1
  9
$LATITUDE
 40
37.795
  9
$LONGITUDE
 40
-122.394
  9
$NORTHDIRECTION
 40
0.0
  9
$TIMEZONE
 70
 -8000
  9
$LIGHTGLYPHDISPLAY
280
     1
  9
$TILEMODELIGHTSYNCH
280
     1
  9
$CMATERIAL
347
44
  9
$SOLIDHIST
280
     0
  9
$SHOWHIST
280
     1
  9
$DWFFRAME
280
     2
  9
$DGNFRAME
280
     2
  9
$REALWORLDSCALE
290
     1
  9
$INTERFERECOLOR
 62
   256
  9
$CSHADOW
280
     0
  9
$SHADOWPLANELOCATION
 40
0.0
  0
ENDSEC
  0
SECTION
  2
CLASSES
  0
CLASS
  1
ACDBDICTIONARYWDFLT
  2
AcDbDictionaryWithDefault
  3
ObjectDBX Classes
 90
        0
 91
        3
280
     0
281
     0
  0
CLASS
  1
VISUALSTYLE
  2
AcDbVisualStyle
  3
ObjectDBX Classes
 90
     4095
 91
        3
280
     0
281
     0
  0
CLASS
  1
MATERIAL
  2
AcDbMaterial
  3
ObjectDBX Classes
 90
     1153
 91
        3
280
     0
281
     0
  0
CLASS
  1
SCALE
  2
AcDbScale
  3
ObjectDBX Classes
 90
     1153
 91
        3
280
     0
281
     0
  0
CLASS
  1
TABLESTYLE
  2
AcDbTableStyle
  3
ObjectDBX Classes
 90
     4095
 91
        3
280
     0
281
     0
  0
CLASS
  1
MLEADERSTYLE
  2
AcDbMLeaderStyle
  3
ACDB_MLEADERSTYLE_CLASS
 90
     4095
 91
        3
280
     0
281
     0
  0
CLASS
  1
SUN
  2
AcDbSun
  3
SCENEOE
 90
     1153
 91
        3
280
     0
281
     0
  0
CLASS
  1
DICTIONARYVAR
  2
AcDbDictionaryVar
  3
ObjectDBX Classes
 90
        0
 91
        3
280
     0
281
     0
  0
CLASS
  1
CELLSTYLEMAP
  2
AcDbCellStyleMap
  3
ObjectDBX Classes
 90
     1152
 91
        3
280
     0
281
     0
  0
ENDSEC
  0
SECTION
  2
TABLES
  0
TABLE
  2
VPORT
  5
8
330
0
100
AcDbSymbolTable
 70
     1
  0
VPORT
  5
29
330
8
100
AcDbSymbolTableRecord
100
AcDbViewportTableRecord
  2
*Active
 70
     0
 10
0.0
 20
0.0
 11
1.0
 21
1.0
 12
151.4998911674896
 22
108.0008027704874
 13
0.0
 23
0.0
 14
10.0
 24
10.0
 15
10.0
 25
10.0
 16
0.0
 26
0.0
 36
1.0
 17
0.0
 27
0.0
 37
0.0
 40
237.6017660950723
 41
1.402766343222857
 42
50.0
 43
0.0
 44
0.0
 50
0.0
 51
0.0
 71
     0
 72
 10000
 73
     1
 74
     3
 75
     0
 76
     0
 77
     0
 78
     0
281
     0
 65
     1
110
0.0
120
0.0
130
0.0
111
1.0
121
0.0
131
0.0
112
0.0
122
1.0
132
0.0
 79
     0
146
0.0
348
2F
 60
     3
 61
     5
292
     1
282
     1
141
0.0
142
0.0
 63
   250
361
5D
  0
ENDTAB
  0
TABLE
  2
LTYPE
  5
5
330
0
100
AcDbSymbolTable
 70
     2
  0
LTYPE
  5
14
330
5
100
AcDbSymbolTableRecord
100
AcDbLinetypeTableRecord
  2
ByBlock
 70
     0
  3

 72
    65
 73
     0
 40
0.0
  0
LTYPE
  5
15
330
5
100
AcDbSymbolTableRecord
100
AcDbLinetypeTableRecord
  2
ByLayer
 70
     0
  3

 72
    65
 73
     0
 40
0.0
  0
LTYPE
  5
16
330
5
100
AcDbSymbolTableRecord
100
AcDbLinetypeTableRecord
  2
Continuous
 70
     0
  3
Solid line
 72
    65
 73
     0
 40
0.0
  0
LTYPE
  5
5F
330
5
100
AcDbSymbolTableRecord
100
AcDbLinetypeTableRecord
  2
UserDefined01
 70
     0
  3
----------------                
 72
    65
 73
     2
 40
0.7055555449591743
 49
0.3527777724795871
 74
     0
 49
-0.3527777724795871
 74
     0
  0
ENDTAB
  0
TABLE
  2
LAYER
  5
2
330
0
100
AcDbSymbolTable
 70
     3
  0
LAYER
  5
10
330
2
100
AcDbSymbolTableRecord
100
AcDbLayerTableRecord
  2
0
 70
     0
 62
     7
  6
Continuous
370
    -3
390
F
347
46
348
0
  0
LAYER
  5
60
330
2
100
AcDbSymbolTableRecord
100
AcDbLayerTableRecord
  2
外枠
 70
     0
 62
     7
  6
Continuous
370
    -3
390
F
347
46
348
0
  0
LAYER
  5
61
330
2
100
AcDbSymbolTableRecord
100
AcDbLayerTableRecord
  2
ISS138金台
 70
     0
 62
     7
  6
Continuous
370
    -3
390
F
347
46
348
0
  0
ENDTAB
  0
TABLE
  2
STYLE
  5
3
330
0
100
AcDbSymbolTable
 70
     2
  0
STYLE
  5
11
330
3
100
AcDbSymbolTableRecord
100
AcDbTextStyleTableRecord
  2
Standard
 70
     0
 40
0.0
 41
1.0
 50
0.0
 71
     0
 42
2.5
  3

  4

  0
STYLE
  5
5E
330
3
100
AcDbSymbolTableRecord
100
AcDbTextStyleTableRecord
  2
MS Gothic
 70
     0
 40
1.0
 41
1.0
 50
0.0
 71
     0
 42
2.5
  3
msgothic.ttc
  4

1001
ACAD
1000
MS Gothic
1071
    32817
  0
ENDTAB
  0
TABLE
  2
VIEW
  5
6
330
0
100
AcDbSymbolTable
 70
     0
  0
ENDTAB
  0
TABLE
  2
UCS
  5
7
330
0
100
AcDbSymbolTable
 70
     0
  0
ENDTAB
  0
TABLE
  2
APPID
  5
9
330
0
100
AcDbSymbolTable
 70
     1
  0
APPID
  5
12
330
9
100
AcDbSymbolTableRecord
100
AcDbRegAppTableRecord
  2
ACAD
 70
     0
  0
ENDTAB
  0
TABLE
  2
DIMSTYLE
  5
A
330
0
100
AcDbSymbolTable
 70
     1
100
AcDbDimStyleTable
  0
DIMSTYLE
105
27
330
A
100
AcDbSymbolTableRecord
100
AcDbDimStyleTableRecord
  2
ISO-25
 70
     0
 41
2.5
 42
0.625
 43
3.75
 44
1.25
 73
     0
 74
     0
 77
     1
 78
     8
140
2.5
141
2.5
143
0.03937007874016
147
0.625
171
     3
172
     1
178
     0
271
     2
272
     2
274
     3
278
    44
283
     0
284
     8
340
11
  0
ENDTAB
  0
TABLE
  2
BLOCK_RECORD
  5
1
330
0
100
AcDbSymbolTable
 70
     1
  0
BLOCK_RECORD
  5
1F
330
1
100
AcDbSymbolTableRecord
100
AcDbBlockTableRecord
  2
*Model_Space
340
22
 70
     0
280
     1
281
     0
  0
BLOCK_RECORD
  5
1B
330
1
100
AcDbSymbolTableRecord
100
AcDbBlockTableRecord
  2
*Paper_Space
340
1E
 70
     0
280
     1
281
     0
  0
BLOCK_RECORD
  5
23
330
1
100
AcDbSymbolTableRecord
100
AcDbBlockTableRecord
  2
*Paper_Space0
340
26
 70
     0
280
     1
281
     0
  0
ENDTAB
  0
ENDSEC
  0
SECTION
  2
BLOCKS
  0
BLOCK
  5
20
330
1F
100
AcDbEntity
  8
0
100
AcDbBlockBegin
  2
*Model_Space
 70
     0
 10
0.0
 20
0.0
 30
0.0
  3
*Model_Space
  1

  0
ENDBLK
  5
21
330
1F
100
AcDbEntity
  8
0
100
AcDbBlockEnd
  0
BLOCK
  5
1C
330
1B
100
AcDbEntity
 67
     1
  8
0
100
AcDbBlockBegin
  2
*Paper_Space
 70
     0
 10
0.0
 20
0.0
 30
0.0
  3
*Paper_Space
  1

  0
ENDBLK
  5
1D
330
1B
100
AcDbEntity
 67
     1
  8
0
100
AcDbBlockEnd
  0
BLOCK
  5
24
330
23
100
AcDbEntity
  8
0
100
AcDbBlockBegin
  2
*Paper_Space0
 70
     0
 10
0.0
 20
0.0
 30
0.0
  3
*Paper_Space0
  1

  0
ENDBLK
  5
25
330
23
100
AcDbEntity
  8
0
100
AcDbBlockEnd
  0
ENDSEC
  0
SECTION
  2
ENTITIES
  0
LWPOLYLINE
  5
62
330
1F
100
AcDbEntity
  8
外枠
  6
Continuous
 62
   250
420
  2367521
370
   100
100
AcDbPolyline
 90
        5
 70
     0
 43
0.0
 10
281.9999662644599
 20
13.29407825637392
 10
20.99981607051935
 20
13.29407825637392
 10
20.99981607051935
 20
193.0018900389566
 10
281.9999662644599
 20
193.0018900389566
 10
281.9999662644599
 20
13.29407825637392
  0
LINE
  5
63
330
1F
100
AcDbEntity
  8
外枠
  6
Continuous
 62
   250
420
  2367521
370
    25
100
AcDbLine
 10
223.3097080177524
 20
174.0786160074276
 30
0.0
 11
281.9999232007669
 21
174.0786160074276
 31
0.0
  0
LINE
  5
64
330
1F
100
AcDbEntity
  8
外枠
  6
Continuous
 62
   250
420
  2367521
370
    25
100
AcDbLine
 10
223.3097080177524
 20
50.37109023844297
 30
0.0
 11
281.9999232007669
 21
50.37109023844297
 31
0.0
  0
LINE
  5
65
330
1F
100
AcDbEntity
  8
外枠
  6
Continuous
 62
   250
420
  2367521
370
    25
100
AcDbLine
 10
223.3097080177524
 20
36.25997933925949
 30
0.0
 11
281.9999232007669
 21
36.25997933925949
 31
0.0
  0
LINE
  5
66
330
1F
100
AcDbEntity
  8
外枠
  6
Continuous
 62
   250
420
  2367521
370
    50
100
AcDbLine
 10
223.0158413772006
 20
193.3637327187979
 30
0.0
 11
223.0158413772006
 21
13.29396655992039
 31
0.0
  0
TEXT
  5
67
330
1F
100
AcDbEntity
  8
外枠
  6
Continuous
 62
   250
420
  2367521
100
AcDbText
 10
224.7190965599536
 20
186.6888051931772
 30
0.0
 40
2.688166626294454
  1
品名：
 41
0.974166170756022
  7
MS Gothic
100
AcDbText
  0
TEXT
  5
68
330
1F
100
AcDbEntity
  8
外枠
  6
Continuous
 62
   250
420
  2367521
100
AcDbText
 10
224.7190965599536
 20
168.1080059455944
 30
0.0
 40
2.688166626294454
  1
仕様：
 41
0.9978878657023111
  7
MS Gothic
100
AcDbText
  0
TEXT
  5
69
330
1F
100
AcDbEntity
  8
外枠
  6
Continuous
 62
   250
420
  2367521
100
AcDbText
 10
224.7190965599536
 20
44.16660664327048
 30
0.0
 40
2.688166626294454
  1
縮尺：
 41
0.9939999262491861
  7
MS Gothic
100
AcDbText
  0
TEXT
  5
6A
330
1F
100
AcDbEntity
  8
外枠
  6
Continuous
 62
   250
420
  2367521
100
AcDbText
 10
250.2379519709696
 20
40.59738467878129
 30
0.0
 40
2.150533301035563
  1
1/1
 41
1.000003814697266
  7
MS Gothic
100
AcDbText
  0
TEXT
  5
6B
330
1F
100
AcDbEntity
  8
外枠
  6
Continuous
 62
   250
420
  2367521
100
AcDbText
 10
232.7757967427735
 20
181.9845273775436
 30
0.0
 40
2.688166626294454
  1
巻上見切　MST-25
 41
1.053886222839355
  7
MS Gothic
100
AcDbText
  0
TEXT
  5
6C
330
1F
100
AcDbEntity
  8
外枠
  6
Continuous
 62
   250
420
  2367521
100
AcDbText
 10
226.1633020978884
 20
24.25683874973963
 30
0.0
 40
2.553758294979732
  1
ヤスダインテリアサプライ株式会社
 41
1.0194908945184
  7
MS Gothic
100
AcDbText
  0
TEXT
  5
6D
330
1F
100
AcDbEntity
  8
外枠
  6
Continuous
 62
   250
420
  2367521
100
AcDbText
 10
227.7635273953072
 20
161.7763665048245
 30
0.0
 40
2.150533301035563
  1
材質
 41
1.028502464294433
  7
MS Gothic
100
AcDbText
  0
TEXT
  5
6E
330
1F
100
AcDbEntity
  8
外枠
  6
Continuous
 62
   250
420
  2367521
100
AcDbText
 10
232.7757967427735
 20
156.199681315683
 30
0.0
 40
2.016124969720841
  1
 ステンレスSUS304（18.8CR）/HL仕上
 41
1.066277118757659
  7
MS Gothic
100
AcDbText
  0
LWPOLYLINE
  5
6F
330
1F
100
AcDbEntity
  8
ISS138金台
  6
Continuous
 62
   250
420
  2367521
370
   100
100
AcDbPolyline
 90
       36
 70
     0
 43
0.0
 10
125.0661045364905
 20
111.8136513765542
 10
125.0661045364905
 20
116.9423326519326
 10
125.0624441225914
 20
117.0446196885637
 10
125.0515167105105
 20
117.1417821457362
 10
125.0334622572498
 20
117.2336047049854
 10
125.0084637835041
 20
117.3199043456164
 10
124.9766289485059
 20
117.4004765150878
 10
124.9380977092571
 20
117.4751058949348
 10
124.8930100227598
 20
117.5435879326162
 10
124.8415166119392
 20
117.6057288415137
 10
124.7837574337973
 20
117.6613240690858
 10
124.7198509134897
 20
117.7101690627913
 10
124.6499585398649
 20
117.7520592700886
 10
124.5742202699249
 20
117.7867901384363
 10
124.4927760606717
 20
117.8141463493699
 10
124.4057551031842
 20
117.8339448821943
 10
124.3132973544642
 20
117.8459704184449
 10
124.2155535374372
 20
117.8500291715035
 10
122.7688180075428
 20
117.8500291715035
 10
122.675994217433
 20
117.8467670967641
 10
122.5865616931413
 20
117.8340310095801
 10
122.5008864760578
 20
117.8123807379598
 10
122.4193561394188
 20
117.7824084076807
 10
122.3423474905374
 20
117.7446415489814
 10
122.2702265708035
 20
117.6996507557932
 10
122.2033809534534
 20
117.6479958561241
 10
122.1421982117237
 20
117.5902582098287
 10
122.0870336210808
 20
117.5269653471453
 10
122.0382747547612
 20
117.4587201597751
 10
121.9962876541548
 20
117.3860501779563
 10
121.9614706584212
 20
117.3095367615436
 10
121.9341898089503
 20
117.2297289726218
 10
121.9148219130552
 20
117.1471974051221
 10
121.903743778049
 20
117.0625018870527
 10
121.901332211245
 20
116.9762022464217
 10
121.901332211245
 20
92.87971908102514
  0
LWPOLYLINE
  5
70
330
1F
100
AcDbEntity
  8
ISS138金台
  6
Continuous
 62
     7
420
 16777215
370
    53
100
AcDbPolyline
 90
       36
 70
     0
 43
0.0
 10
125.0661045364905
 20
111.8136513765542
 10
125.0661045364905
 20
116.9423326519326
 10
125.0624441225914
 20
117.0446196885637
 10
125.0515167105105
 20
117.1417821457362
 10
125.0334622572498
 20
117.2336047049854
 10
125.0084637835041
 20
117.3199043456164
 10
124.9766289485059
 20
117.4004765150878
 10
124.9380977092571
 20
117.4751058949348
 10
124.8930100227598
 20
117.5435879326162
 10
124.8415166119392
 20
117.6057288415137
 10
124.7837574337973
 20
117.6613240690858
 10
124.7198509134897
 20
117.7101690627913
 10
124.6499585398649
 20
117.7520592700886
 10
124.5742202699249
 20
117.7867901384363
 10
124.4927760606717
 20
117.8141463493699
 10
124.4057551031842
 20
117.8339448821943
 10
124.3132973544642
 20
117.8459704184449
 10
124.2155535374372
 20
117.8500291715035
 10
122.7688180075428
 20
117.8500291715035
 10
122.675994217433
 20
117.8467670967641
 10
122.5865616931413
 20
117.8340310095801
 10
122.5008864760578
 20
117.8123807379598
 10
122.4193561394188
 20
117.7824084076807
 10
122.3423474905374
 20
117.7446415489814
 10
122.2702265708035
 20
117.6996507557932
 10
122.2033809534534
 20
117.6479958561241
 10
122.1421982117237
 20
117.5902582098287
 10
122.0870336210808
 20
117.5269653471453
 10
122.0382747547612
 20
117.4587201597751
 10
121.9962876541548
 20
117.3860501779563
 10
121.9614706584212
 20
117.3095367615436
 10
121.9341898089503
 20
117.2297289726218
 10
121.9148219130552
 20
117.1471974051221
 10
121.903743778049
 20
117.0625018870527
 10
121.901332211245
 20
116.9762022464217
 10
121.901332211245
 20
92.87971908102514
  0
LINE
  5
71
330
1F
100
AcDbEntity
  8
ISS138金台
  6
Continuous
 62
   250
420
  2367521
370
    13
100
AcDbLine
 10
121.4494325835646
 20
91.44455691860558
 30
0.0
 11
121.4494325835646
 21
86.43934463381811
 31
0.0
  0
LINE
  5
72
330
1F
100
AcDbEntity
  8
ISS138金台
  6
Continuous
 62
   250
420
  2367521
370
    13
100
AcDbLine
 10
122.3534148596203
 20
91.44455691860558
 30
0.0
 11
122.3534148596203
 21
81.43448762449731
 31
0.0
  0
LINE
  5
73
330
1F
100
AcDbEntity
  8
ISS138金台
  6
Continuous
 62
   250
420
  2367521
370
    13
100
AcDbLine
 10
121.4494325835646
 20
86.92458094278764
 30
0.0
 11
123.9188769909217
 21
86.92458094278764
 31
0.0
  0
LINE
  5
74
330
1F
100
AcDbEntity
  8
ISS138金台
  6
Continuous
 62
   250
420
  2367521
370
    13
100
AcDbLine
 10
124.6244325358809
 20
91.48863260831908
 30
0.0
 11
124.6244325358809
 21
81.43446609265084
 31
0.0
  0
LINE
  5
75
330
1F
100
AcDbEntity
  8
ISS138金台
  6
Continuous
 62
   250
420
  2367521
370
    13
100
AcDbLine
 10
122.3534148596203
 20
81.94160028947509
 30
0.0
 11
125.4624412343684
 21
81.94160028947509
 31
0.0
  0
LINE
  5
76
330
1F
100
AcDbEntity
  8
ISS138金台
  6
Continuous
 62
   250
420
  2367521
370
    13
100
AcDbLine
 10
120.4351857217625
 20
92.4367336377812
 30
0.0
 11
110.4692136492142
 21
92.4367336377812
 31
0.0
  0
LINE
  5
77
330
1F
100
AcDbEntity
  8
ISS138金台
  6
Continuous
 62
   250
420
  2367521
370
    13
100
AcDbLine
 10
110.9763424630768
 20
118.2997433167677
 30
0.0
 11
110.9763424630768
 21
92.43653985116302
 31
0.0
  0
LINE
  5
78
330
1F
100
AcDbEntity
  8
ISS138金台
  6
Continuous
 62
   250
420
  2367521
370
    13
100
AcDbLine
 10
110.4692244151374
 20
118.2997433167677
 30
0.0
 11
120.5015145747974
 21
118.2997433167677
 31
0.0
  0
LINE
  5
79
330
1F
100
AcDbEntity
  8
ISS138金台
  6
Continuous
 62
   250
420
  2367521
370
    13
100
AcDbLine
 10
121.4494325835646
 20
119.336049555273
 30
0.0
 11
121.4494325835646
 21
124.2971592355389
 31
0.0
  0
LINE
  5
7A
330
1F
100
AcDbEntity
  8
ISS138金台
  6
Continuous
 62
   250
420
  2367521
370
    13
100
AcDbLine
 10
125.5063769670798
 20
123.7677987902013
 30
0.0
 11
121.4494325835646
 21
123.7677987902013
 31
0.0
  0
LINE
  5
7B
330
1F
100
AcDbEntity
  8
ISS138金台
  6
Continuous
 62
   250
420
  2367521
370
    13
100
AcDbLine
 10
125.5063769670798
 20
124.2969654489207
 30
0.0
 11
125.5063769670798
 21
119.3358557686548
 31
0.0
  0
LINE
  5
7C
330
1F
100
AcDbEntity
  8
ISS138金台
  6
Continuous
 62
   250
420
  2367521
370
    13
100
AcDbLine
 10
126.4985644521787
 20
118.2997433167677
 30
0.0
 11
131.5256477100128
 21
118.2997433167677
 31
0.0
  0
LINE
  5
7D
330
1F
100
AcDbEntity
  8
ISS138金台
  6
Continuous
 62
   250
420
  2367521
370
    13
100
AcDbLine
 10
131.0185188961502
 20
111.3765010637023
 30
0.0
 11
131.0185188961502
 21
118.2997648486141
 31
0.0
  0
LINE
  5
7E
330
1F
100
AcDbEntity
  8
ISS138金台
  6
Continuous
 62
   250
420
  2367521
370
    13
100
AcDbLine
 10
131.5256369440896
 20
111.3765010637023
 30
0.0
 11
126.4985536862554
 21
111.3765010637023
 31
0.0
  0
HATCH
  5
7F
330
1F
100
AcDbEntity
  8
ISS138金台
  6
Continuous
 62
   250
420
  2367521
370
    13
100
AcDbHatch
 10
0.0
 20
0.0
 30
0.0
210
0.0
220
0.0
230
1.0
  2
SOLID
 70
     1
 71
     0
 91
        1
 92
        3
 72
     0
 73
     1
 93
       67
 10
130.7685879883098
 20
111.3765010637023
 10
130.7698798990976
 20
111.3509535278718
 10
130.7736587381522
 20
111.3261488407443
 10
130.7798168462412
 20
111.3022054274754
 10
130.7882142663624
 20
111.2792309472974
 10
130.7987325733605
 20
111.2573653572124
 10
130.8112425761566
 20
111.2367486142223
 10
130.8256258495951
 20
111.2174883775596
 10
130.841742436674
 20
111.1997138383029
 10
130.859484678161
 20
111.1835649534543
 10
130.8787126170541
 20
111.1691493822461
 10
130.8992970622745
 20
111.1566070816803
 10
130.921141120513
 20
111.1460564769125
 10
130.9440833029213
 20
111.1376375249448
 10
130.9680159502669
 20
111.1314686509326
 10
130.9928206373944
 20
111.1276682800316
 10
131.0183574073017
 20
111.1263763692437
 10
131.0183574073017
 20
111.1263763692437
 10
131.0439587727483
 20
111.1276682800316
 10
131.0688065235688
 20
111.1314794168559
 10
131.0927930005305
 20
111.1376375249448
 10
131.1157782466317
 20
111.1460564769125
 10
131.1376438367168
 20
111.1566070816803
 10
131.1582713456301
 20
111.1691493822461
 10
131.1775100504464
 20
111.183554187531
 10
131.1952738237798
 20
111.1997138383029
 10
131.211401176782
 20
111.2174883775596
 10
131.2257952161437
 20
111.2367486142223
 10
131.238315984863
 20
111.2573653572124
 10
131.2488342918611
 20
111.2792309472974
 10
131.2572424779056
 20
111.3021946615522
 10
131.2634005859945
 20
111.3261488407443
 10
131.2671794250491
 20
111.350964293795
 10
131.268471335837
 20
111.3765010637023
 10
131.268471335837
 20
111.3765010637023
 10
131.2671794250491
 20
111.4020378336095
 10
131.2634005859945
 20
111.4268532866602
 10
131.2572424779056
 20
111.4508074658523
 10
131.2488342918611
 20
111.4737711801071
 10
131.238315984863
 20
111.4956367701921
 10
131.2257952161437
 20
111.5162535131822
 10
131.2114119427052
 20
111.5355245157682
 10
131.1952738237798
 20
111.5532882891017
 10
131.1775100504464
 20
111.5694479398735
 10
131.1582713456301
 20
111.5838527451585
 10
131.1376438367168
 20
111.5963950457242
 10
131.1157782466317
 20
111.6069348845688
 10
131.0927930005305
 20
111.6153646024597
 10
131.0688065235688
 20
111.6215334764719
 10
131.0439587727483
 20
111.6253338473729
 10
131.0183574073017
 20
111.6266257581608
 10
131.0183574073017
 20
111.6266257581608
 10
130.9928206373944
 20
111.6253230814497
 10
130.9680159502669
 20
111.6215442423951
 10
130.9440833029213
 20
111.6153646024597
 10
130.921141120513
 20
111.606945650492
 10
130.8993078281977
 20
111.5963950457242
 10
130.8787126170541
 20
111.5838527451585
 10
130.8594739122378
 20
111.5694371739503
 10
130.841742436674
 20
111.5532882891017
 10
130.8256258495951
 20
111.5355245157682
 10
130.8112425761566
 20
111.5162535131822
 10
130.7987325733605
 20
111.4956367701921
 10
130.7882142663624
 20
111.4737711801071
 10
130.7798168462412
 20
111.4508074658523
 10
130.7736587381522
 20
111.4268532866602
 10
130.7698798990976
 20
111.4020378336095
 97
        0
 75
     1
 76
     1
 98
        0
  0
LWPOLYLINE
  5
80
330
1F
100
AcDbEntity
  8
ISS138金台
  6
Continuous
 62
   250
420
  2367521
370
    13
100
AcDbPolyline
 90
       68
 70
     0
 43
0.0
 10
130.7685879883098
 20
111.3765010637023
 10
130.7698798990976
 20
111.3509535278718
 10
130.7736587381522
 20
111.3261488407443
 10
130.7798168462412
 20
111.3022054274754
 10
130.7882142663624
 20
111.2792309472974
 10
130.7987325733605
 20
111.2573653572124
 10
130.8112425761566
 20
111.2367486142223
 10
130.8256258495951
 20
111.2174883775596
 10
130.841742436674
 20
111.1997138383029
 10
130.859484678161
 20
111.1835649534543
 10
130.8787126170541
 20
111.1691493822461
 10
130.8992970622745
 20
111.1566070816803
 10
130.921141120513
 20
111.1460564769125
 10
130.9440833029213
 20
111.1376375249448
 10
130.9680159502669
 20
111.1314686509326
 10
130.9928206373944
 20
111.1276682800316
 10
131.0183574073017
 20
111.1263763692437
 10
131.0183574073017
 20
111.1263763692437
 10
131.0439587727483
 20
111.1276682800316
 10
131.0688065235688
 20
111.1314794168559
 10
131.0927930005305
 20
111.1376375249448
 10
131.1157782466317
 20
111.1460564769125
 10
131.1376438367168
 20
111.1566070816803
 10
131.1582713456301
 20
111.1691493822461
 10
131.1775100504464
 20
111.183554187531
 10
131.1952738237798
 20
111.1997138383029
 10
131.211401176782
 20
111.2174883775596
 10
131.2257952161437
 20
111.2367486142223
 10
131.238315984863
 20
111.2573653572124
 10
131.2488342918611
 20
111.2792309472974
 10
131.2572424779056
 20
111.3021946615522
 10
131.2634005859945
 20
111.3261488407443
 10
131.2671794250491
 20
111.350964293795
 10
131.268471335837
 20
111.3765010637023
 10
131.268471335837
 20
111.3765010637023
 10
131.2671794250491
 20
111.4020378336095
 10
131.2634005859945
 20
111.4268532866602
 10
131.2572424779056
 20
111.4508074658523
 10
131.2488342918611
 20
111.4737711801071
 10
131.238315984863
 20
111.4956367701921
 10
131.2257952161437
 20
111.5162535131822
 10
131.2114119427052
 20
111.5355245157682
 10
131.1952738237798
 20
111.5532882891017
 10
131.1775100504464
 20
111.5694479398735
 10
131.1582713456301
 20
111.5838527451585
 10
131.1376438367168
 20
111.5963950457242
 10
131.1157782466317
 20
111.6069348845688
 10
131.0927930005305
 20
111.6153646024597
 10
131.0688065235688
 20
111.6215334764719
 10
131.0439587727483
 20
111.6253338473729
 10
131.0183574073017
 20
111.6266257581608
 10
131.0183574073017
 20
111.6266257581608
 10
130.9928206373944
 20
111.6253230814497
 10
130.9680159502669
 20
111.6215442423951
 10
130.9440833029213
 20
111.6153646024597
 10
130.921141120513
 20
111.606945650492
 10
130.8993078281977
 20
111.5963950457242
 10
130.8787126170541
 20
111.5838527451585
 10
130.8594739122378
 20
111.5694371739503
 10
130.841742436674
 20
111.5532882891017
 10
130.8256258495951
 20
111.5355245157682
 10
130.8112425761566
 20
111.5162535131822
 10
130.7987325733605
 20
111.4956367701921
 10
130.7882142663624
 20
111.4737711801071
 10
130.7798168462412
 20
111.4508074658523
 10
130.7736587381522
 20
111.4268532866602
 10
130.7698798990976
 20
111.4020378336095
 10
130.7685879883098
 20
111.3765010637023
  0
HATCH
  5
81
330
1F
100
AcDbEntity
  8
ISS138金台
  6
Continuous
 62
   250
420
  2367521
370
    13
100
AcDbHatch
 10
0.0
 20
0.0
 30
0.0
210
0.0
220
0.0
230
1.0
  2
SOLID
 70
     1
 71
     0
 91
        1
 92
        3
 72
     0
 73
     1
 93
       67
 10
130.7685879883098
 20
118.2997433167677
 10
130.7698798990976
 20
118.2741957809372
 10
130.7736587381522
 20
118.2493910938097
 10
130.7798168462412
 20
118.2254476805408
 10
130.7882142663624
 20
118.2024732003629
 10
130.7987325733605
 20
118.1806076102778
 10
130.8112425761566
 20
118.1599908672878
 10
130.8256258495951
 20
118.140730630625
 10
130.841742436674
 20
118.1229560913683
 10
130.859484678161
 20
118.1067964405965
 10
130.8787126170541
 20
118.0923916353115
 10
130.8992970622745
 20
118.0798493347457
 10
130.921141120513
 20
118.0693094959012
 10
130.9440833029213
 20
118.0608797780102
 10
130.9680159502669
 20
118.0547109039981
 10
130.9928206373944
 20
118.050910533097
 10
131.0183574073017
 20
118.0496186223091
 10
131.0183574073017
 20
118.0496186223091
 10
131.0439587727483
 20
118.0509212990203
 10
131.0688065235688
 20
118.0547216699213
 10
131.0927930005305
 20
118.0608797780102
 10
131.1157782466317
 20
118.069298729978
 10
131.1376438367168
 20
118.0798493347457
 10
131.1582713456301
 20
118.0923916353115
 10
131.1775100504464
 20
118.1067964405965
 10
131.1952738237798
 20
118.1229560913683
 10
131.211401176782
 20
118.1407198647018
 10
131.2257952161437
 20
118.1599801013646
 10
131.238315984863
 20
118.1806183762011
 10
131.2488342918611
 20
118.2024732003629
 10
131.2572424779056
 20
118.2254369146176
 10
131.2634005859945
 20
118.2493910938097
 10
131.2671794250491
 20
118.2742065468604
 10
131.268471335837
 20
118.2997433167677
 10
131.268471335837
 20
118.2997433167677
 10
131.2671794250491
 20
118.325280086675
 10
131.2634005859945
 20
118.3500955397257
 10
131.2572424779056
 20
118.3740497189178
 10
131.2488342918611
 20
118.3970134331725
 10
131.238315984863
 20
118.4188682573343
 10
131.2257952161437
 20
118.4395065321708
 10
131.2114119427052
 20
118.4587667688336
 10
131.1952738237798
 20
118.4765305421671
 10
131.1775100504464
 20
118.4926794270157
 10
131.1582713456301
 20
118.5070949982239
 10
131.1376438367168
 20
118.5196372987896
 10
131.1157782466317
 20
118.5301879035574
 10
131.0927930005305
 20
118.5386068555251
 10
131.0688065235688
 20
118.5447757295373
 10
131.0439587727483
 20
118.5485761004384
 10
131.0183574073017
 20
118.5498680112263
 10
131.0183574073017
 20
118.5498680112263
 10
130.9928206373944
 20
118.5485761004384
 10
130.9680159502669
 20
118.5447864954606
 10
130.9440833029213
 20
118.5386068555251
 10
130.921141120513
 20
118.5301879035574
 10
130.8993078281977
 20
118.5196372987896
 10
130.8787126170541
 20
118.5070949982239
 10
130.8594739122378
 20
118.4926794270157
 10
130.841742436674
 20
118.4765305421671
 10
130.8256258495951
 20
118.4587560029104
 10
130.8112425761566
 20
118.4394957662476
 10
130.7987325733605
 20
118.4188790232575
 10
130.7882142663624
 20
118.3970134331725
 10
130.7798168462412
 20
118.3740497189178
 10
130.7736587381522
 20
118.3500955397257
 10
130.7698798990976
 20
118.325280086675
 97
        0
 75
     1
 76
     1
 98
        0
  0
LWPOLYLINE
  5
82
330
1F
100
AcDbEntity
  8
ISS138金台
  6
Continuous
 62
   250
420
  2367521
370
    13
100
AcDbPolyline
 90
       68
 70
     0
 43
0.0
 10
130.7685879883098
 20
118.2997433167677
 10
130.7698798990976
 20
118.2741957809372
 10
130.7736587381522
 20
118.2493910938097
 10
130.7798168462412
 20
118.2254476805408
 10
130.7882142663624
 20
118.2024732003629
 10
130.7987325733605
 20
118.1806076102778
 10
130.8112425761566
 20
118.1599908672878
 10
130.8256258495951
 20
118.140730630625
 10
130.841742436674
 20
118.1229560913683
 10
130.859484678161
 20
118.1067964405965
 10
130.8787126170541
 20
118.0923916353115
 10
130.8992970622745
 20
118.0798493347457
 10
130.921141120513
 20
118.0693094959012
 10
130.9440833029213
 20
118.0608797780102
 10
130.9680159502669
 20
118.0547109039981
 10
130.9928206373944
 20
118.050910533097
 10
131.0183574073017
 20
118.0496186223091
 10
131.0183574073017
 20
118.0496186223091
 10
131.0439587727483
 20
118.0509212990203
 10
131.0688065235688
 20
118.0547216699213
 10
131.0927930005305
 20
118.0608797780102
 10
131.1157782466317
 20
118.069298729978
 10
131.1376438367168
 20
118.0798493347457
 10
131.1582713456301
 20
118.0923916353115
 10
131.1775100504464
 20
118.1067964405965
 10
131.1952738237798
 20
118.1229560913683
 10
131.211401176782
 20
118.1407198647018
 10
131.2257952161437
 20
118.1599801013646
 10
131.238315984863
 20
118.1806183762011
 10
131.2488342918611
 20
118.2024732003629
 10
131.2572424779056
 20
118.2254369146176
 10
131.2634005859945
 20
118.2493910938097
 10
131.2671794250491
 20
118.2742065468604
 10
131.268471335837
 20
118.2997433167677
 10
131.268471335837
 20
118.2997433167677
 10
131.2671794250491
 20
118.325280086675
 10
131.2634005859945
 20
118.3500955397257
 10
131.2572424779056
 20
118.3740497189178
 10
131.2488342918611
 20
118.3970134331725
 10
131.238315984863
 20
118.4188682573343
 10
131.2257952161437
 20
118.4395065321708
 10
131.2114119427052
 20
118.4587667688336
 10
131.1952738237798
 20
118.4765305421671
 10
131.1775100504464
 20
118.4926794270157
 10
131.1582713456301
 20
118.5070949982239
 10
131.1376438367168
 20
118.5196372987896
 10
131.1157782466317
 20
118.5301879035574
 10
131.0927930005305
 20
118.5386068555251
 10
131.0688065235688
 20
118.5447757295373
 10
131.0439587727483
 20
118.5485761004384
 10
131.0183574073017
 20
118.5498680112263
 10
131.0183574073017
 20
118.5498680112263
 10
130.9928206373944
 20
118.5485761004384
 10
130.9680159502669
 20
118.5447864954606
 10
130.9440833029213
 20
118.5386068555251
 10
130.921141120513
 20
118.5301879035574
 10
130.8993078281977
 20
118.5196372987896
 10
130.8787126170541
 20
118.5070949982239
 10
130.8594739122378
 20
118.4926794270157
 10
130.841742436674
 20
118.4765305421671
 10
130.8256258495951
 20
118.4587560029104
 10
130.8112425761566
 20
118.4394957662476
 10
130.7987325733605
 20
118.4188790232575
 10
130.7882142663624
 20
118.3970134331725
 10
130.7798168462412
 20
118.3740497189178
 10
130.7736587381522
 20
118.3500955397257
 10
130.7698798990976
 20
118.325280086675
 10
130.7685879883098
 20
118.2997433167677
  0
HATCH
  5
83
330
1F
100
AcDbEntity
  8
ISS138金台
  6
Continuous
 62
   250
420
  2367521
370
    13
100
AcDbHatch
 10
0.0
 20
0.0
 30
0.0
210
0.0
220
0.0
230
1.0
  2
SOLID
 70
     1
 71
     0
 91
        1
 92
        3
 72
     0
 73
     1
 93
       67
 10
125.2565967821647
 20
123.7677987902013
 10
125.2578886929526
 20
123.742262020294
 10
125.2616567660839
 20
123.7174680990898
 10
125.2677825764032
 20
123.6935354517441
 10
125.2761799965244
 20
123.6705717374894
 10
125.2866767716761
 20
123.6487492110973
 10
125.2991652426256
 20
123.6281539999537
 10
125.3135162182945
 20
123.6089260610606
 10
125.3296220394501
 20
123.5911945854969
 10
125.3473535150139
 20
123.5750672324947
 10
125.3665706879838
 20
123.5606947249794
 10
125.3871551332041
 20
123.5481739562601
 10
125.4089991914427
 20
123.5376556492621
 10
125.4319629056974
 20
123.5292582291408
 10
125.4559278508128
 20
123.5231001210519
 10
125.4807756016332
 20
123.5193212819973
 10
125.5063662011566
 20
123.5180293712094
 10
125.5063662011566
 20
123.5180293712094
 10
125.5319029710639
 20
123.5193212819973
 10
125.5567076581913
 20
123.5231108869751
 10
125.5806726033067
 20
123.529268995064
 10
125.6036363175614
 20
123.5376556492621
 10
125.6254911417232
 20
123.5481739562601
 10
125.6461186506365
 20
123.5606839590562
 10
125.6653788872993
 20
123.5750672324947
 10
125.683153426556
 20
123.5911945854969
 10
125.6993023114046
 20
123.6089152951374
 10
125.7137178826128
 20
123.6281539999537
 10
125.7262494172553
 20
123.6487492110973
 10
125.7368000220231
 20
123.6705825034126
 10
125.7452189739908
 20
123.6935246858209
 10
125.751387848003
 20
123.7174680990898
 10
125.755188218904
 20
123.742262020294
 10
125.7564801296919
 20
123.7677987902013
 10
125.7564801296919
 20
123.7677987902013
 10
125.755188218904
 20
123.7933355601086
 10
125.751387848003
 20
123.818140247236
 10
125.7452189739908
 20
123.8420728945817
 10
125.7368000220231
 20
123.8650043110667
 10
125.7262494172553
 20
123.8868483693053
 10
125.7137178826128
 20
123.9074435804489
 10
125.6993023114046
 20
123.926671519342
 10
125.683153426556
 20
123.944413760829
 10
125.6653788872993
 20
123.9605303479079
 10
125.6461186506365
 20
123.9749028554231
 10
125.6254911417232
 20
123.9874236241424
 10
125.6036363175614
 20
123.9979419311405
 10
125.5806726033067
 20
124.0063393512618
 10
125.5567184241146
 20
124.0124974593507
 10
125.5319029710639
 20
124.0162762984053
 10
125.5063662011566
 20
124.0175682091932
 10
125.5063662011566
 20
124.0175682091932
 10
125.4807648357099
 20
124.0162762984053
 10
125.4559278508128
 20
124.012508225274
 10
125.4319629056974
 20
124.0063393512618
 10
125.4090099573659
 20
123.9979419311405
 10
125.3871551332041
 20
123.9874236241424
 10
125.3665599220605
 20
123.9749136213464
 10
125.3473427490907
 20
123.9605303479079
 10
125.3296220394501
 20
123.944413760829
 10
125.3135269842177
 20
123.926671519342
 10
125.2991652426256
 20
123.9074435804489
 10
125.2866660057528
 20
123.8868483693053
 10
125.2761799965244
 20
123.8650150769899
 10
125.2677933423264
 20
123.8420728945817
 10
125.2616567660839
 20
123.8181294813128
 10
125.2578779270294
 20
123.7933355601086
 97
        0
 75
     1
 76
     1
 98
        0
  0
LWPOLYLINE
  5
84
330
1F
100
AcDbEntity
  8
ISS138金台
  6
Continuous
 62
   250
420
  2367521
370
    13
100
AcDbPolyline
 90
       68
 70
     0
 43
0.0
 10
125.2565967821647
 20
123.7677987902013
 10
125.2578886929526
 20
123.742262020294
 10
125.2616567660839
 20
123.7174680990898
 10
125.2677825764032
 20
123.6935354517441
 10
125.2761799965244
 20
123.6705717374894
 10
125.2866767716761
 20
123.6487492110973
 10
125.2991652426256
 20
123.6281539999537
 10
125.3135162182945
 20
123.6089260610606
 10
125.3296220394501
 20
123.5911945854969
 10
125.3473535150139
 20
123.5750672324947
 10
125.3665706879838
 20
123.5606947249794
 10
125.3871551332041
 20
123.5481739562601
 10
125.4089991914427
 20
123.5376556492621
 10
125.4319629056974
 20
123.5292582291408
 10
125.4559278508128
 20
123.5231001210519
 10
125.4807756016332
 20
123.5193212819973
 10
125.5063662011566
 20
123.5180293712094
 10
125.5063662011566
 20
123.5180293712094
 10
125.5319029710639
 20
123.5193212819973
 10
125.5567076581913
 20
123.5231108869751
 10
125.5806726033067
 20
123.529268995064
 10
125.6036363175614
 20
123.5376556492621
 10
125.6254911417232
 20
123.5481739562601
 10
125.6461186506365
 20
123.5606839590562
 10
125.6653788872993
 20
123.5750672324947
 10
125.683153426556
 20
123.5911945854969
 10
125.6993023114046
 20
123.6089152951374
 10
125.7137178826128
 20
123.6281539999537
 10
125.7262494172553
 20
123.6487492110973
 10
125.7368000220231
 20
123.6705825034126
 10
125.7452189739908
 20
123.6935246858209
 10
125.751387848003
 20
123.7174680990898
 10
125.755188218904
 20
123.742262020294
 10
125.7564801296919
 20
123.7677987902013
 10
125.7564801296919
 20
123.7677987902013
 10
125.755188218904
 20
123.7933355601086
 10
125.751387848003
 20
123.818140247236
 10
125.7452189739908
 20
123.8420728945817
 10
125.7368000220231
 20
123.8650043110667
 10
125.7262494172553
 20
123.8868483693053
 10
125.7137178826128
 20
123.9074435804489
 10
125.6993023114046
 20
123.926671519342
 10
125.683153426556
 20
123.944413760829
 10
125.6653788872993
 20
123.9605303479079
 10
125.6461186506365
 20
123.9749028554231
 10
125.6254911417232
 20
123.9874236241424
 10
125.6036363175614
 20
123.9979419311405
 10
125.5806726033067
 20
124.0063393512618
 10
125.5567184241146
 20
124.0124974593507
 10
125.5319029710639
 20
124.0162762984053
 10
125.5063662011566
 20
124.0175682091932
 10
125.5063662011566
 20
124.0175682091932
 10
125.4807648357099
 20
124.0162762984053
 10
125.4559278508128
 20
124.012508225274
 10
125.4319629056974
 20
124.0063393512618
 10
125.4090099573659
 20
123.9979419311405
 10
125.3871551332041
 20
123.9874236241424
 10
125.3665599220605
 20
123.9749136213464
 10
125.3473427490907
 20
123.9605303479079
 10
125.3296220394501
 20
123.944413760829
 10
125.3135269842177
 20
123.926671519342
 10
125.2991652426256
 20
123.9074435804489
 10
125.2866660057528
 20
123.8868483693053
 10
125.2761799965244
 20
123.8650150769899
 10
125.2677933423264
 20
123.8420728945817
 10
125.2616567660839
 20
123.8181294813128
 10
125.2578779270294
 20
123.7933355601086
 10
125.2565967821647
 20
123.7677987902013
  0
HATCH
  5
85
330
1F
100
AcDbEntity
  8
ISS138金台
  6
Continuous
 62
   250
420
  2367521
370
    13
100
AcDbHatch
 10
0.0
 20
0.0
 30
0.0
210
0.0
220
0.0
230
1.0
  2
SOLID
 70
     1
 71
     0
 91
        1
 92
        3
 72
     0
 73
     1
 93
       67
 10
121.1992971231828
 20
123.7677987902013
 10
121.2005890339707
 20
123.742262020294
 10
121.2043894048717
 20
123.7174680990898
 10
121.2105475129607
 20
123.6935354517441
 10
121.2189772308516
 20
123.6705717374894
 10
121.2295170696962
 20
123.6487492110973
 10
121.2420701361851
 20
123.6281539999537
 10
121.2564749414701
 20
123.6089260610606
 10
121.272634592242
 20
123.5911945854969
 10
121.2903983655754
 20
123.5750672324947
 10
121.3096693681615
 20
123.5606947249794
 10
121.3302861111515
 20
123.5481739562601
 10
121.3521409353133
 20
123.5376556492621
 10
121.3751154154913
 20
123.5292582291408
 10
121.3990695946834
 20
123.5231001210519
 10
121.4238850477341
 20
123.5193212819973
 10
121.4494218176414
 20
123.5180293712094
 10
121.4494218176414
 20
123.5180293712094
 10
121.4749585875486
 20
123.5193212819973
 10
121.4997632746761
 20
123.5231108869751
 10
121.5237282197914
 20
123.529268995064
 10
121.5466919340462
 20
123.5376556492621
 10
121.568546758208
 20
123.5481739562601
 10
121.5891742671213
 20
123.5606839590562
 10
121.608434503784
 20
123.5750672324947
 10
121.6262090430407
 20
123.5911945854969
 10
121.6423579278893
 20
123.6089152951374
 10
121.6567734990976
 20
123.6281539999537
 10
121.6693050337401
 20
123.6487492110973
 10
121.6798556385078
 20
123.6705825034126
 10
121.6882745904756
 20
123.6935246858209
 10
121.6944434644877
 20
123.7174680990898
 10
121.6982438353888
 20
123.742262020294
 10
121.6995357461767
 20
123.7677987902013
 10
121.6995357461767
 20
123.7677987902013
 10
121.6982438353888
 20
123.7933355601086
 10
121.6944434644877
 20
123.818140247236
 10
121.6882745904756
 20
123.8420728945817
 10
121.6798556385078
 20
123.8650043110667
 10
121.6693050337401
 20
123.8868483693053
 10
121.6567734990976
 20
123.9074435804489
 10
121.6423579278893
 20
123.926671519342
 10
121.6262090430407
 20
123.944413760829
 10
121.608434503784
 20
123.9605303479079
 10
121.5891742671213
 20
123.9749028554231
 10
121.568546758208
 20
123.9874236241424
 10
121.5466919340462
 20
123.9979419311405
 10
121.5237282197914
 20
124.0063393512618
 10
121.4997740405993
 20
124.0124974593507
 10
121.4749585875486
 20
124.0162762984053
 10
121.4494218176414
 20
124.0175682091932
 10
121.4494218176414
 20
124.0175682091932
 10
121.4238742818109
 20
124.0162762984053
 10
121.3990803606066
 20
124.012508225274
 10
121.375104649568
 20
124.0063393512618
 10
121.3521409353133
 20
123.9979419311405
 10
121.3302861111515
 20
123.9874236241424
 10
121.3096693681615
 20
123.9749136213464
 10
121.2904091314987
 20
123.9605303479079
 10
121.272634592242
 20
123.944413760829
 10
121.2564857073933
 20
123.926671519342
 10
121.2420701361851
 20
123.9074435804489
 10
121.2295278356194
 20
123.8868483693053
 10
121.2189772308516
 20
123.8650150769899
 10
121.2105582788839
 20
123.8420728945817
 10
121.2043894048717
 20
123.8181294813128
 10
121.2005890339707
 20
123.7933355601086
 97
        0
 75
     1
 76
     1
 98
        0
  0
LWPOLYLINE
  5
86
330
1F
100
AcDbEntity
  8
ISS138金台
  6
Continuous
 62
   250
420
  2367521
370
    13
100
AcDbPolyline
 90
       68
 70
     0
 43
0.0
 10
121.1992971231828
 20
123.7677987902013
 10
121.2005890339707
 20
123.742262020294
 10
121.2043894048717
 20
123.7174680990898
 10
121.2105475129607
 20
123.6935354517441
 10
121.2189772308516
 20
123.6705717374894
 10
121.2295170696962
 20
123.6487492110973
 10
121.2420701361851
 20
123.6281539999537
 10
121.2564749414701
 20
123.6089260610606
 10
121.272634592242
 20
123.5911945854969
 10
121.2903983655754
 20
123.5750672324947
 10
121.3096693681615
 20
123.5606947249794
 10
121.3302861111515
 20
123.5481739562601
 10
121.3521409353133
 20
123.5376556492621
 10
121.3751154154913
 20
123.5292582291408
 10
121.3990695946834
 20
123.5231001210519
 10
121.4238850477341
 20
123.5193212819973
 10
121.4494218176414
 20
123.5180293712094
 10
121.4494218176414
 20
123.5180293712094
 10
121.4749585875486
 20
123.5193212819973
 10
121.4997632746761
 20
123.5231108869751
 10
121.5237282197914
 20
123.529268995064
 10
121.5466919340462
 20
123.5376556492621
 10
121.568546758208
 20
123.5481739562601
 10
121.5891742671213
 20
123.5606839590562
 10
121.608434503784
 20
123.5750672324947
 10
121.6262090430407
 20
123.5911945854969
 10
121.6423579278893
 20
123.6089152951374
 10
121.6567734990976
 20
123.6281539999537
 10
121.6693050337401
 20
123.6487492110973
 10
121.6798556385078
 20
123.6705825034126
 10
121.6882745904756
 20
123.6935246858209
 10
121.6944434644877
 20
123.7174680990898
 10
121.6982438353888
 20
123.742262020294
 10
121.6995357461767
 20
123.7677987902013
 10
121.6995357461767
 20
123.7677987902013
 10
121.6982438353888
 20
123.7933355601086
 10
121.6944434644877
 20
123.818140247236
 10
121.6882745904756
 20
123.8420728945817
 10
121.6798556385078
 20
123.8650043110667
 10
121.6693050337401
 20
123.8868483693053
 10
121.6567734990976
 20
123.9074435804489
 10
121.6423579278893
 20
123.926671519342
 10
121.6262090430407
 20
123.944413760829
 10
121.608434503784
 20
123.9605303479079
 10
121.5891742671213
 20
123.9749028554231
 10
121.568546758208
 20
123.9874236241424
 10
121.5466919340462
 20
123.9979419311405
 10
121.5237282197914
 20
124.0063393512618
 10
121.4997740405993
 20
124.0124974593507
 10
121.4749585875486
 20
124.0162762984053
 10
121.4494218176414
 20
124.0175682091932
 10
121.4494218176414
 20
124.0175682091932
 10
121.4238742818109
 20
124.0162762984053
 10
121.3990803606066
 20
124.012508225274
 10
121.375104649568
 20
124.0063393512618
 10
121.3521409353133
 20
123.9979419311405
 10
121.3302861111515
 20
123.9874236241424
 10
121.3096693681615
 20
123.9749136213464
 10
121.2904091314987
 20
123.9605303479079
 10
121.272634592242
 20
123.944413760829
 10
121.2564857073933
 20
123.926671519342
 10
121.2420701361851
 20
123.9074435804489
 10
121.2295278356194
 20
123.8868483693053
 10
121.2189772308516
 20
123.8650150769899
 10
121.2105582788839
 20
123.8420728945817
 10
121.2043894048717
 20
123.8181294813128
 10
121.2005890339707
 20
123.7933355601086
 10
121.1992971231828
 20
123.7677987902013
  0
HATCH
  5
87
330
1F
100
AcDbEntity
  8
ISS138金台
  6
Continuous
 62
   250
420
  2367521
370
    13
100
AcDbHatch
 10
0.0
 20
0.0
 30
0.0
210
0.0
220
0.0
230
1.0
  2
SOLID
 70
     1
 71
     0
 91
        1
 92
        3
 72
     0
 73
     1
 93
       67
 10
110.7262177686183
 20
118.2997433167677
 10
110.7275204453294
 20
118.2741957809372
 10
110.7313100503072
 20
118.2493910938097
 10
110.7374789243194
 20
118.2254476805408
 10
110.7458978762871
 20
118.2024732003629
 10
110.7564484810549
 20
118.1806076102778
 10
110.7689907816206
 20
118.1599908672878
 10
110.7833955869056
 20
118.140730630625
 10
110.7995552376775
 20
118.1229560913683
 10
110.8173190110109
 20
118.1067964405965
 10
110.8365792476737
 20
118.0923916353115
 10
110.857206756587
 20
118.0798493347457
 10
110.8790615807488
 20
118.0693094959012
 10
110.9020360609268
 20
118.0608797780102
 10
110.9259902401188
 20
118.0547109039981
 10
110.9508056931696
 20
118.050910533097
 10
110.9763424630768
 20
118.0496186223091
 10
110.9763424630768
 20
118.0496186223091
 10
111.0018899989073
 20
118.0509212990203
 10
111.0266946860348
 20
118.0547216699213
 10
111.0506488652269
 20
118.0608797780102
 10
111.0736125794817
 20
118.069298729978
 10
111.0954781695667
 20
118.0798493347457
 10
111.1160949125567
 20
118.0923916353115
 10
111.1353551492195
 20
118.1067964405965
 10
111.153118922553
 20
118.1229560913683
 10
111.1692785733248
 20
118.1407198647018
 10
111.1836833786098
 20
118.1599801013646
 10
111.1962256791756
 20
118.1806183762011
 10
111.2067762839433
 20
118.2024732003629
 10
111.2151952359111
 20
118.2254369146176
 10
111.2213641099232
 20
118.2493910938097
 10
111.2251644808243
 20
118.2742065468604
 10
111.2264563916122
 20
118.2997433167677
 10
111.2264563916122
 20
118.2997433167677
 10
111.2251644808243
 20
118.325280086675
 10
111.2213641099232
 20
118.3500955397257
 10
111.2151952359111
 20
118.3740497189178
 10
111.2067762839433
 20
118.3970134331725
 10
111.1962256791756
 20
118.4188682573343
 10
111.1836833786098
 20
118.4395065321708
 10
111.1692785733248
 20
118.4587667688336
 10
111.153118922553
 20
118.4765305421671
 10
111.1353443832963
 20
118.4926794270157
 10
111.1160949125567
 20
118.5070949982239
 10
111.0954781695667
 20
118.5196372987896
 10
111.0736125794817
 20
118.5301879035574
 10
111.0506488652269
 20
118.5386068555251
 10
111.0266946860348
 20
118.5447757295373
 10
111.0018792329841
 20
118.5485761004384
 10
110.9763424630768
 20
118.5498680112263
 10
110.9763424630768
 20
118.5498680112263
 10
110.9508056931696
 20
118.5485761004384
 10
110.9259902401188
 20
118.5447864954606
 10
110.9020360609268
 20
118.5386068555251
 10
110.8790615807488
 20
118.5301879035574
 10
110.857206756587
 20
118.5196372987896
 10
110.8365900135969
 20
118.5070949982239
 10
110.8173190110109
 20
118.4926794270157
 10
110.7995552376775
 20
118.4765305421671
 10
110.7833955869056
 20
118.4587560029104
 10
110.7689907816206
 20
118.4394957662476
 10
110.7564484810549
 20
118.4188790232575
 10
110.7458978762871
 20
118.3970134331725
 10
110.7374789243194
 20
118.3740497189178
 10
110.7313100503072
 20
118.3500955397257
 10
110.7275096794062
 20
118.325280086675
 97
        0
 75
     1
 76
     1
 98
        0
  0
LWPOLYLINE
  5
88
330
1F
100
AcDbEntity
  8
ISS138金台
  6
Continuous
 62
   250
420
  2367521
370
    13
100
AcDbPolyline
 90
       68
 70
     0
 43
0.0
 10
110.7262177686183
 20
118.2997433167677
 10
110.7275204453294
 20
118.2741957809372
 10
110.7313100503072
 20
118.2493910938097
 10
110.7374789243194
 20
118.2254476805408
 10
110.7458978762871
 20
118.2024732003629
 10
110.7564484810549
 20
118.1806076102778
 10
110.7689907816206
 20
118.1599908672878
 10
110.7833955869056
 20
118.140730630625
 10
110.7995552376775
 20
118.1229560913683
 10
110.8173190110109
 20
118.1067964405965
 10
110.8365792476737
 20
118.0923916353115
 10
110.857206756587
 20
118.0798493347457
 10
110.8790615807488
 20
118.0693094959012
 10
110.9020360609268
 20
118.0608797780102
 10
110.9259902401188
 20
118.0547109039981
 10
110.9508056931696
 20
118.050910533097
 10
110.9763424630768
 20
118.0496186223091
 10
110.9763424630768
 20
118.0496186223091
 10
111.0018899989073
 20
118.0509212990203
 10
111.0266946860348
 20
118.0547216699213
 10
111.0506488652269
 20
118.0608797780102
 10
111.0736125794817
 20
118.069298729978
 10
111.0954781695667
 20
118.0798493347457
 10
111.1160949125567
 20
118.0923916353115
 10
111.1353551492195
 20
118.1067964405965
 10
111.153118922553
 20
118.1229560913683
 10
111.1692785733248
 20
118.1407198647018
 10
111.1836833786098
 20
118.1599801013646
 10
111.1962256791756
 20
118.1806183762011
 10
111.2067762839433
 20
118.2024732003629
 10
111.2151952359111
 20
118.2254369146176
 10
111.2213641099232
 20
118.2493910938097
 10
111.2251644808243
 20
118.2742065468604
 10
111.2264563916122
 20
118.2997433167677
 10
111.2264563916122
 20
118.2997433167677
 10
111.2251644808243
 20
118.325280086675
 10
111.2213641099232
 20
118.3500955397257
 10
111.2151952359111
 20
118.3740497189178
 10
111.2067762839433
 20
118.3970134331725
 10
111.1962256791756
 20
118.4188682573343
 10
111.1836833786098
 20
118.4395065321708
 10
111.1692785733248
 20
118.4587667688336
 10
111.153118922553
 20
118.4765305421671
 10
111.1353443832963
 20
118.4926794270157
 10
111.1160949125567
 20
118.5070949982239
 10
111.0954781695667
 20
118.5196372987896
 10
111.0736125794817
 20
118.5301879035574
 10
111.0506488652269
 20
118.5386068555251
 10
111.0266946860348
 20
118.5447757295373
 10
111.0018792329841
 20
118.5485761004384
 10
110.9763424630768
 20
118.5498680112263
 10
110.9763424630768
 20
118.5498680112263
 10
110.9508056931696
 20
118.5485761004384
 10
110.9259902401188
 20
118.5447864954606
 10
110.9020360609268
 20
118.5386068555251
 10
110.8790615807488
 20
118.5301879035574
 10
110.857206756587
 20
118.5196372987896
 10
110.8365900135969
 20
118.5070949982239
 10
110.8173190110109
 20
118.4926794270157
 10
110.7995552376775
 20
118.4765305421671
 10
110.7833955869056
 20
118.4587560029104
 10
110.7689907816206
 20
118.4394957662476
 10
110.7564484810549
 20
118.4188790232575
 10
110.7458978762871
 20
118.3970134331725
 10
110.7374789243194
 20
118.3740497189178
 10
110.7313100503072
 20
118.3500955397257
 10
110.7275096794062
 20
118.325280086675
 10
110.7262177686183
 20
118.2997433167677
  0
HATCH
  5
89
330
1F
100
AcDbEntity
  8
ISS138金台
  6
Continuous
 62
   250
420
  2367521
370
    13
100
AcDbHatch
 10
0.0
 20
0.0
 30
0.0
210
0.0
220
0.0
230
1.0
  2
SOLID
 70
     1
 71
     0
 91
        1
 92
        3
 72
     0
 73
     1
 93
       67
 10
110.7262177686183
 20
92.4367336377812
 10
110.7275204453294
 20
92.41119686787391
 10
110.7313100503072
 20
92.3863814148232
 10
110.7374789243194
 20
92.3624272356311
 10
110.7458978762871
 20
92.33946352137637
 10
110.7564484810549
 20
92.31759793129135
 10
110.7689907816206
 20
92.29698118830129
 10
110.7833955869056
 20
92.27772095163851
 10
110.7995552376775
 20
92.2599464123818
 10
110.8173190110109
 20
92.24379752753319
 10
110.8365792476737
 20
92.229381956325
 10
110.857206756587
 20
92.21683965575923
 10
110.8790615807488
 20
92.20629981691471
 10
110.9020360609268
 20
92.19787009902373
 10
110.9259902401188
 20
92.19170122501156
 10
110.9508056931696
 20
92.18790085411052
 10
110.9763424630768
 20
92.18660894332263
 10
110.9763424630768
 20
92.18660894332263
 10
111.0018899989073
 20
92.18789008818729
 10
111.0266946860348
 20
92.19170122501156
 10
111.0506488652269
 20
92.1978593331005
 10
111.0736125794817
 20
92.20628905099147
 10
111.0954781695667
 20
92.21683965575923
 10
111.1160949125567
 20
92.229381956325
 10
111.1353551492195
 20
92.24379752753319
 10
111.153118922553
 20
92.2599464123818
 10
111.1692785733248
 20
92.27772095163851
 10
111.1836833786098
 20
92.29698118830129
 10
111.1962256791756
 20
92.31759793129135
 10
111.2067762839433
 20
92.33946352137637
 10
111.2151952359111
 20
92.3624272356311
 10
111.2213641099232
 20
92.3863814148232
 10
111.2251644808243
 20
92.41119686787391
 10
111.2264563916122
 20
92.4367336377812
 10
111.2264563916122
 20
92.4367336377812
 10
111.2251644808243
 20
92.46227040768846
 10
111.2213641099232
 20
92.48708586073917
 10
111.2151952359111
 20
92.51104003993129
 10
111.2067762839433
 20
92.53400375418602
 10
111.1962256791756
 20
92.5558585783478
 10
111.1836833786098
 20
92.57649685318432
 10
111.1692785733248
 20
92.59574632392388
 10
111.153118922553
 20
92.61352086318058
 10
111.1353443832963
 20
92.62968051395242
 10
111.1160949125567
 20
92.6440853192374
 10
111.0954781695667
 20
92.65662761980315
 10
111.0736125794817
 20
92.66716745864768
 10
111.0506488652269
 20
92.67559717653866
 10
111.0266946860348
 20
92.68176605055083
 10
111.0018792329841
 20
92.68556642145187
 10
110.9763424630768
 20
92.68685833223975
 10
110.9763424630768
 20
92.68685833223975
 10
110.9508056931696
 20
92.68556642145187
 10
110.9259902401188
 20
92.68177681647407
 10
110.9020360609268
 20
92.67558641061542
 10
110.8790615807488
 20
92.6671782245709
 10
110.857206756587
 20
92.65662761980315
 10
110.8365900135969
 20
92.6440853192374
 10
110.8173190110109
 20
92.62968051395242
 10
110.7995552376775
 20
92.61352086318058
 10
110.7833955869056
 20
92.59575708984711
 10
110.7689907816206
 20
92.57648608726109
 10
110.7564484810549
 20
92.55586934427103
 10
110.7458978762871
 20
92.53400375418602
 10
110.7374789243194
 20
92.51104003993129
 10
110.7313100503072
 20
92.48708586073917
 10
110.7275096794062
 20
92.46227040768846
 97
        0
 75
     1
 76
     1
 98
        0
  0
LWPOLYLINE
  5
8A
330
1F
100
AcDbEntity
  8
ISS138金台
  6
Continuous
 62
   250
420
  2367521
370
    13
100
AcDbPolyline
 90
       68
 70
     0
 43
0.0
 10
110.7262177686183
 20
92.4367336377812
 10
110.7275204453294
 20
92.41119686787391
 10
110.7313100503072
 20
92.3863814148232
 10
110.7374789243194
 20
92.3624272356311
 10
110.7458978762871
 20
92.33946352137637
 10
110.7564484810549
 20
92.31759793129135
 10
110.7689907816206
 20
92.29698118830129
 10
110.7833955869056
 20
92.27772095163851
 10
110.7995552376775
 20
92.2599464123818
 10
110.8173190110109
 20
92.24379752753319
 10
110.8365792476737
 20
92.229381956325
 10
110.857206756587
 20
92.21683965575923
 10
110.8790615807488
 20
92.20629981691471
 10
110.9020360609268
 20
92.19787009902373
 10
110.9259902401188
 20
92.19170122501156
 10
110.9508056931696
 20
92.18790085411052
 10
110.9763424630768
 20
92.18660894332263
 10
110.9763424630768
 20
92.18660894332263
 10
111.0018899989073
 20
92.18789008818729
 10
111.0266946860348
 20
92.19170122501156
 10
111.0506488652269
 20
92.1978593331005
 10
111.0736125794817
 20
92.20628905099147
 10
111.0954781695667
 20
92.21683965575923
 10
111.1160949125567
 20
92.229381956325
 10
111.1353551492195
 20
92.24379752753319
 10
111.153118922553
 20
92.2599464123818
 10
111.1692785733248
 20
92.27772095163851
 10
111.1836833786098
 20
92.29698118830129
 10
111.1962256791756
 20
92.31759793129135
 10
111.2067762839433
 20
92.33946352137637
 10
111.2151952359111
 20
92.3624272356311
 10
111.2213641099232
 20
92.3863814148232
 10
111.2251644808243
 20
92.41119686787391
 10
111.2264563916122
 20
92.4367336377812
 10
111.2264563916122
 20
92.4367336377812
 10
111.2251644808243
 20
92.46227040768846
 10
111.2213641099232
 20
92.48708586073917
 10
111.2151952359111
 20
92.51104003993129
 10
111.2067762839433
 20
92.53400375418602
 10
111.1962256791756
 20
92.5558585783478
 10
111.1836833786098
 20
92.57649685318432
 10
111.1692785733248
 20
92.59574632392388
 10
111.153118922553
 20
92.61352086318058
 10
111.1353443832963
 20
92.62968051395242
 10
111.1160949125567
 20
92.6440853192374
 10
111.0954781695667
 20
92.65662761980315
 10
111.0736125794817
 20
92.66716745864768
 10
111.0506488652269
 20
92.67559717653866
 10
111.0266946860348
 20
92.68176605055083
 10
111.0018792329841
 20
92.68556642145187
 10
110.9763424630768
 20
92.68685833223975
 10
110.9763424630768
 20
92.68685833223975
 10
110.9508056931696
 20
92.68556642145187
 10
110.9259902401188
 20
92.68177681647407
 10
110.9020360609268
 20
92.67558641061542
 10
110.8790615807488
 20
92.6671782245709
 10
110.857206756587
 20
92.65662761980315
 10
110.8365900135969
 20
92.6440853192374
 10
110.8173190110109
 20
92.62968051395242
 10
110.7995552376775
 20
92.61352086318058
 10
110.7833955869056
 20
92.59575708984711
 10
110.7689907816206
 20
92.57648608726109
 10
110.7564484810549
 20
92.55586934427103
 10
110.7458978762871
 20
92.53400375418602
 10
110.7374789243194
 20
92.51104003993129
 10
110.7313100503072
 20
92.48708586073917
 10
110.7275096794062
 20
92.46227040768846
 10
110.7262177686183
 20
92.4367336377812
  0
HATCH
  5
8B
330
1F
100
AcDbEntity
  8
ISS138金台
  6
Continuous
 62
   250
420
  2367521
370
    13
100
AcDbHatch
 10
0.0
 20
0.0
 30
0.0
210
0.0
220
0.0
230
1.0
  2
SOLID
 70
     1
 71
     0
 91
        1
 92
        3
 72
     0
 73
     1
 93
       67
 10
121.1992971231828
 20
86.92458094278764
 10
121.2005890339707
 20
86.89903878991876
 10
121.2043894048717
 20
86.87422871982966
 10
121.2105475129607
 20
86.85027992359917
 10
121.2189772308516
 20
86.82730544342121
 10
121.2295170696962
 20
86.8054452362978
 10
121.2420701361851
 20
86.78482311034612
 10
121.2564749414701
 20
86.76556287368334
 10
121.272634592242
 20
86.74779371738825
 10
121.2903983655754
 20
86.73163944957801
 10
121.3096693681615
 20
86.71722926133144
 10
121.3302861111515
 20
86.7046923437273
 10
121.3521409353133
 20
86.69414712192116
 10
121.3751154154913
 20
86.68572278699179
 10
121.3990695946834
 20
86.67954853001801
 10
121.4238850477341
 20
86.67575354207858
 10
121.4494218176414
 20
86.6744616312907
 10
121.4494218176414
 20
86.6744616312907
 10
121.4749585875486
 20
86.67575354207858
 10
121.4997632746761
 20
86.67954853001801
 10
121.5237282197914
 20
86.68572816995342
 10
121.5466919340462
 20
86.69414173895953
 10
121.568546758208
 20
86.7046923437273
 10
121.5891742671213
 20
86.71722926133144
 10
121.608434503784
 20
86.73163944957801
 10
121.6262090430407
 20
86.74779371738825
 10
121.6423579278893
 20
86.76556287368334
 10
121.6567734990976
 20
86.78482311034612
 10
121.6693050337401
 20
86.80545061925942
 10
121.6798556385078
 20
86.82730544342121
 10
121.6882745904756
 20
86.85027992359917
 10
121.6944434644877
 20
86.87422871982966
 10
121.6982438353888
 20
86.89903878991876
 10
121.6995357461767
 20
86.92458094278764
 10
121.6995357461767
 20
86.92458094278764
 10
121.6982438353888
 20
86.95012309565654
 10
121.6944434644877
 20
86.97493316574563
 10
121.6882745904756
 20
86.99888196197611
 10
121.6798556385078
 20
87.02185644215407
 10
121.6693050337401
 20
87.04371664927748
 10
121.6567734990976
 20
87.06433339226754
 10
121.6423579278893
 20
87.08359901189195
 10
121.6262090430407
 20
87.10136816818704
 10
121.608434503784
 20
87.11752243599727
 10
121.5891742671213
 20
87.13192724128223
 10
121.568546758208
 20
87.1444749248096
 10
121.5466919340462
 20
87.15501476365412
 10
121.5237282197914
 20
87.1634390985835
 10
121.4997740405993
 20
87.16961335555729
 10
121.4749585875486
 20
87.1734083434967
 10
121.4494218176414
 20
87.1747002542846
 10
121.4494218176414
 20
87.1747002542846
 10
121.4238742818109
 20
87.17340296053509
 10
121.3990803606066
 20
87.16960797259566
 10
121.375104649568
 20
87.16343371562188
 10
121.3521409353133
 20
87.15502014661575
 10
121.3302861111515
 20
87.144469541848
 10
121.3096693681615
 20
87.13193262424384
 10
121.2904091314987
 20
87.11751705303564
 10
121.272634592242
 20
87.10136816818704
 10
121.2564857073933
 20
87.08359901189195
 10
121.2420701361851
 20
87.06433877522917
 10
121.2295278356194
 20
87.04371664927748
 10
121.2189772308516
 20
87.02185644215407
 10
121.2105582788839
 20
86.99888734493774
 10
121.2043894048717
 20
86.97493316574563
 10
121.2005890339707
 20
86.95012309565654
 97
        0
 75
     1
 76
     1
 98
        0
  0
LWPOLYLINE
  5
8C
330
1F
100
AcDbEntity
  8
ISS138金台
  6
Continuous
 62
   250
420
  2367521
370
    13
100
AcDbPolyline
 90
       68
 70
     0
 43
0.0
 10
121.1992971231828
 20
86.92458094278764
 10
121.2005890339707
 20
86.89903878991876
 10
121.2043894048717
 20
86.87422871982966
 10
121.2105475129607
 20
86.85027992359917
 10
121.2189772308516
 20
86.82730544342121
 10
121.2295170696962
 20
86.8054452362978
 10
121.2420701361851
 20
86.78482311034612
 10
121.2564749414701
 20
86.76556287368334
 10
121.272634592242
 20
86.74779371738825
 10
121.2903983655754
 20
86.73163944957801
 10
121.3096693681615
 20
86.71722926133144
 10
121.3302861111515
 20
86.7046923437273
 10
121.3521409353133
 20
86.69414712192116
 10
121.3751154154913
 20
86.68572278699179
 10
121.3990695946834
 20
86.67954853001801
 10
121.4238850477341
 20
86.67575354207858
 10
121.4494218176414
 20
86.6744616312907
 10
121.4494218176414
 20
86.6744616312907
 10
121.4749585875486
 20
86.67575354207858
 10
121.4997632746761
 20
86.67954853001801
 10
121.5237282197914
 20
86.68572816995342
 10
121.5466919340462
 20
86.69414173895953
 10
121.568546758208
 20
86.7046923437273
 10
121.5891742671213
 20
86.71722926133144
 10
121.608434503784
 20
86.73163944957801
 10
121.6262090430407
 20
86.74779371738825
 10
121.6423579278893
 20
86.76556287368334
 10
121.6567734990976
 20
86.78482311034612
 10
121.6693050337401
 20
86.80545061925942
 10
121.6798556385078
 20
86.82730544342121
 10
121.6882745904756
 20
86.85027992359917
 10
121.6944434644877
 20
86.87422871982966
 10
121.6982438353888
 20
86.89903878991876
 10
121.6995357461767
 20
86.92458094278764
 10
121.6995357461767
 20
86.92458094278764
 10
121.6982438353888
 20
86.95012309565654
 10
121.6944434644877
 20
86.97493316574563
 10
121.6882745904756
 20
86.99888196197611
 10
121.6798556385078
 20
87.02185644215407
 10
121.6693050337401
 20
87.04371664927748
 10
121.6567734990976
 20
87.06433339226754
 10
121.6423579278893
 20
87.08359901189195
 10
121.6262090430407
 20
87.10136816818704
 10
121.608434503784
 20
87.11752243599727
 10
121.5891742671213
 20
87.13192724128223
 10
121.568546758208
 20
87.1444749248096
 10
121.5466919340462
 20
87.15501476365412
 10
121.5237282197914
 20
87.1634390985835
 10
121.4997740405993
 20
87.16961335555729
 10
121.4749585875486
 20
87.1734083434967
 10
121.4494218176414
 20
87.1747002542846
 10
121.4494218176414
 20
87.1747002542846
 10
121.4238742818109
 20
87.17340296053509
 10
121.3990803606066
 20
87.16960797259566
 10
121.375104649568
 20
87.16343371562188
 10
121.3521409353133
 20
87.15502014661575
 10
121.3302861111515
 20
87.144469541848
 10
121.3096693681615
 20
87.13193262424384
 10
121.2904091314987
 20
87.11751705303564
 10
121.272634592242
 20
87.10136816818704
 10
121.2564857073933
 20
87.08359901189195
 10
121.2420701361851
 20
87.06433877522917
 10
121.2295278356194
 20
87.04371664927748
 10
121.2189772308516
 20
87.02185644215407
 10
121.2105582788839
 20
86.99888734493774
 10
121.2043894048717
 20
86.97493316574563
 10
121.2005890339707
 20
86.95012309565654
 10
121.1992971231828
 20
86.92458094278764
  0
HATCH
  5
8D
330
1F
100
AcDbEntity
  8
ISS138金台
  6
Continuous
 62
   250
420
  2367521
370
    13
100
AcDbHatch
 10
0.0
 20
0.0
 30
0.0
210
0.0
220
0.0
230
1.0
  2
SOLID
 70
     1
 71
     0
 91
        1
 92
        3
 72
     0
 73
     1
 93
       67
 10
122.1036562065516
 20
86.92458094278764
 10
122.1049373514163
 20
86.89903878991876
 10
122.1087161904709
 20
86.87422871982966
 10
122.1148635326366
 20
86.85027992359917
 10
122.1232286549882
 20
86.82730544342121
 10
122.133736196063
 20
86.8054452362978
 10
122.1462246670126
 20
86.78482311034612
 10
122.1605864086046
 20
86.76556287368334
 10
122.1766814638371
 20
86.74779371738825
 10
122.1944021734776
 20
86.73163944957801
 10
122.2136301123707
 20
86.71722926133144
 10
122.234214557591
 20
86.7046923437273
 10
122.2560586158296
 20
86.69414712192116
 10
122.2790223300843
 20
86.68572278699179
 10
122.3029872751997
 20
86.67954853001801
 10
122.3278350260201
 20
86.67575354207858
 10
122.3534256255435
 20
86.6744616312907
 10
122.3534256255435
 20
86.6744616312907
 10
122.379016225067
 20
86.67575354207858
 10
122.4038532099641
 20
86.67954853001801
 10
122.4278289210027
 20
86.68572816995342
 10
122.4508034011807
 20
86.69414173895953
 10
122.4726259275728
 20
86.7046923437273
 10
122.4932211387164
 20
86.71722926133144
 10
122.5124383116862
 20
86.73163944957801
 10
122.53016978725
 20
86.74779371738825
 10
122.5462540765592
 20
86.76556287368334
 10
122.5606265840745
 20
86.78482311034612
 10
122.5731150550241
 20
86.80545061925942
 10
122.5836010642524
 20
86.82730544342121
 10
122.5919877184505
 20
86.85027992359917
 10
122.598124294693
 20
86.87422871982966
 10
122.6019031337475
 20
86.89903878991876
 10
122.6031842786122
 20
86.92458094278764
 10
122.6031842786122
 20
86.92458094278764
 10
122.6019031337475
 20
86.95012309565654
 10
122.598124294693
 20
86.97493316574563
 10
122.5919769525272
 20
86.99888196197611
 10
122.5836118301757
 20
87.02185644215407
 10
122.5731150550241
 20
87.04371664927748
 10
122.5606265840745
 20
87.06433339226754
 10
122.5462648424824
 20
87.08359901189195
 10
122.5301590213268
 20
87.10136816818704
 10
122.5124383116862
 20
87.11752243599727
 10
122.4932211387164
 20
87.13192724128223
 10
122.472636693496
 20
87.1444749248096
 10
122.4507926352574
 20
87.15501476365412
 10
122.4278289210027
 20
87.1634390985835
 10
122.4038639758874
 20
87.16961335555729
 10
122.379016225067
 20
87.1734083434967
 10
122.3534256255435
 20
87.1747002542846
 10
122.3534256255435
 20
87.1747002542846
 10
122.3278350260201
 20
87.17340296053509
 10
122.3029872751997
 20
87.16960797259566
 10
122.2790223300843
 20
87.16343371562188
 10
122.2560693817529
 20
87.15502014661575
 10
122.2342253235143
 20
87.144469541848
 10
122.2136301123707
 20
87.13193262424384
 10
122.1944021734776
 20
87.11751705303564
 10
122.1766814638371
 20
87.10136816818704
 10
122.1605756426814
 20
87.08359901189195
 10
122.1462246670126
 20
87.06433877522917
 10
122.133736196063
 20
87.04371664927748
 10
122.1232394209114
 20
87.02185644215407
 10
122.1148527667133
 20
86.99888734493774
 10
122.1087161904709
 20
86.97493316574563
 10
122.1049373514163
 20
86.95012309565654
 97
        0
 75
     1
 76
     1
 98
        0
  0
LWPOLYLINE
  5
8E
330
1F
100
AcDbEntity
  8
ISS138金台
  6
Continuous
 62
   250
420
  2367521
370
    13
100
AcDbPolyline
 90
       68
 70
     0
 43
0.0
 10
122.1036562065516
 20
86.92458094278764
 10
122.1049373514163
 20
86.89903878991876
 10
122.1087161904709
 20
86.87422871982966
 10
122.1148635326366
 20
86.85027992359917
 10
122.1232286549882
 20
86.82730544342121
 10
122.133736196063
 20
86.8054452362978
 10
122.1462246670126
 20
86.78482311034612
 10
122.1605864086046
 20
86.76556287368334
 10
122.1766814638371
 20
86.74779371738825
 10
122.1944021734776
 20
86.73163944957801
 10
122.2136301123707
 20
86.71722926133144
 10
122.234214557591
 20
86.7046923437273
 10
122.2560586158296
 20
86.69414712192116
 10
122.2790223300843
 20
86.68572278699179
 10
122.3029872751997
 20
86.67954853001801
 10
122.3278350260201
 20
86.67575354207858
 10
122.3534256255435
 20
86.6744616312907
 10
122.3534256255435
 20
86.6744616312907
 10
122.379016225067
 20
86.67575354207858
 10
122.4038532099641
 20
86.67954853001801
 10
122.4278289210027
 20
86.68572816995342
 10
122.4508034011807
 20
86.69414173895953
 10
122.4726259275728
 20
86.7046923437273
 10
122.4932211387164
 20
86.71722926133144
 10
122.5124383116862
 20
86.73163944957801
 10
122.53016978725
 20
86.74779371738825
 10
122.5462540765592
 20
86.76556287368334
 10
122.5606265840745
 20
86.78482311034612
 10
122.5731150550241
 20
86.80545061925942
 10
122.5836010642524
 20
86.82730544342121
 10
122.5919877184505
 20
86.85027992359917
 10
122.598124294693
 20
86.87422871982966
 10
122.6019031337475
 20
86.89903878991876
 10
122.6031842786122
 20
86.92458094278764
 10
122.6031842786122
 20
86.92458094278764
 10
122.6019031337475
 20
86.95012309565654
 10
122.598124294693
 20
86.97493316574563
 10
122.5919769525272
 20
86.99888196197611
 10
122.5836118301757
 20
87.02185644215407
 10
122.5731150550241
 20
87.04371664927748
 10
122.5606265840745
 20
87.06433339226754
 10
122.5462648424824
 20
87.08359901189195
 10
122.5301590213268
 20
87.10136816818704
 10
122.5124383116862
 20
87.11752243599727
 10
122.4932211387164
 20
87.13192724128223
 10
122.472636693496
 20
87.1444749248096
 10
122.4507926352574
 20
87.15501476365412
 10
122.4278289210027
 20
87.1634390985835
 10
122.4038639758874
 20
87.16961335555729
 10
122.379016225067
 20
87.1734083434967
 10
122.3534256255435
 20
87.1747002542846
 10
122.3534256255435
 20
87.1747002542846
 10
122.3278350260201
 20
87.17340296053509
 10
122.3029872751997
 20
87.16960797259566
 10
122.2790223300843
 20
87.16343371562188
 10
122.2560693817529
 20
87.15502014661575
 10
122.2342253235143
 20
87.144469541848
 10
122.2136301123707
 20
87.13193262424384
 10
122.1944021734776
 20
87.11751705303564
 10
122.1766814638371
 20
87.10136816818704
 10
122.1605756426814
 20
87.08359901189195
 10
122.1462246670126
 20
87.06433877522917
 10
122.133736196063
 20
87.04371664927748
 10
122.1232394209114
 20
87.02185644215407
 10
122.1148527667133
 20
86.99888734493774
 10
122.1087161904709
 20
86.97493316574563
 10
122.1049373514163
 20
86.95012309565654
 10
122.1036562065516
 20
86.92458094278764
  0
HATCH
  5
8F
330
1F
100
AcDbEntity
  8
ISS138金台
  6
Continuous
 62
   250
420
  2367521
370
    13
100
AcDbHatch
 10
0.0
 20
0.0
 30
0.0
210
0.0
220
0.0
230
1.0
  2
SOLID
 70
     1
 71
     0
 91
        1
 92
        3
 72
     0
 73
     1
 93
       67
 10
122.1036562065516
 20
81.94160028947509
 10
122.1049373514163
 20
81.91606351956781
 10
122.1087161904709
 20
81.8912426835555
 10
122.1148635326366
 20
81.86729927028662
 10
122.1232286549882
 20
81.84432479010866
 10
122.133736196063
 20
81.82246996594687
 10
122.1462246670126
 20
81.80184245703357
 10
122.1605864086046
 20
81.78258222037078
 10
122.1766814638371
 20
81.7648130640757
 10
122.1944021734776
 20
81.74866417922709
 10
122.2136301123707
 20
81.73424322505727
 10
122.234214557591
 20
81.72170630745313
 10
122.2560586158296
 20
81.71116646860861
 10
122.2790223300843
 20
81.70274213367924
 10
122.3029872751997
 20
81.69657325966708
 10
122.3278350260201
 20
81.69277288876603
 10
122.3534256255435
 20
81.69148097797815
 10
122.3534256255435
 20
81.69148097797815
 10
122.379016225067
 20
81.69277288876603
 10
122.4038532099641
 20
81.69657325966708
 10
122.4278289210027
 20
81.70274751664087
 10
122.4508034011807
 20
81.71116646860861
 10
122.4726259275728
 20
81.72170630745313
 10
122.4932211387164
 20
81.73424860801889
 10
122.5124383116862
 20
81.74865879626546
 10
122.53016978725
 20
81.7648130640757
 10
122.5462540765592
 20
81.78258222037078
 10
122.5606265840745
 20
81.80184245703357
 10
122.5731150550241
 20
81.82246458298525
 10
122.5836010642524
 20
81.84432479010866
 10
122.5919877184505
 20
81.86729927028662
 10
122.598124294693
 20
81.89124806651711
 10
122.6019031337475
 20
81.91605813660621
 10
122.6031842786122
 20
81.94160028947509
 10
122.6031842786122
 20
81.94160028947509
 10
122.6019031337475
 20
81.96714244234398
 10
122.598124294693
 20
81.99194712947146
 10
122.5919769525272
 20
82.01590130866356
 10
122.5836118301757
 20
82.03887040587992
 10
122.5731150550241
 20
82.06073599596493
 10
122.5606265840745
 20
82.08135812191662
 10
122.5462648424824
 20
82.10061297561778
 10
122.5301590213268
 20
82.11838751487448
 10
122.5124383116862
 20
82.13454178268472
 10
122.4932211387164
 20
82.14894658796968
 10
122.472636693496
 20
82.16149427149705
 10
122.4507926352574
 20
82.1720394933032
 10
122.4278289210027
 20
82.18045844527094
 10
122.4038639758874
 20
82.1866273192831
 10
122.379016225067
 20
82.19042769018415
 10
122.3534256255435
 20
82.19171960097205
 10
122.3534256255435
 20
82.19171960097205
 10
122.3278350260201
 20
82.19042769018415
 10
122.3029872751997
 20
82.1866273192831
 10
122.2790223300843
 20
82.18045844527094
 10
122.2560693817529
 20
82.1720394933032
 10
122.2342253235143
 20
82.16149427149705
 10
122.2136301123707
 20
82.1489519709313
 10
122.1944021734776
 20
82.13454178268472
 10
122.1766814638371
 20
82.11838751487448
 10
122.1605756426814
 20
82.1006183585794
 10
122.1462246670126
 20
82.08135273895499
 10
122.133736196063
 20
82.06073599596493
 10
122.1232394209114
 20
82.03887040587992
 10
122.1148527667133
 20
82.01590669162519
 10
122.1087161904709
 20
81.99195251243307
 10
122.1049373514163
 20
81.96714244234398
 97
        0
 75
     1
 76
     1
 98
        0
  0
LWPOLYLINE
  5
90
330
1F
100
AcDbEntity
  8
ISS138金台
  6
Continuous
 62
   250
420
  2367521
370
    13
100
AcDbPolyline
 90
       68
 70
     0
 43
0.0
 10
122.1036562065516
 20
81.94160028947509
 10
122.1049373514163
 20
81.91606351956781
 10
122.1087161904709
 20
81.8912426835555
 10
122.1148635326366
 20
81.86729927028662
 10
122.1232286549882
 20
81.84432479010866
 10
122.133736196063
 20
81.82246996594687
 10
122.1462246670126
 20
81.80184245703357
 10
122.1605864086046
 20
81.78258222037078
 10
122.1766814638371
 20
81.7648130640757
 10
122.1944021734776
 20
81.74866417922709
 10
122.2136301123707
 20
81.73424322505727
 10
122.234214557591
 20
81.72170630745313
 10
122.2560586158296
 20
81.71116646860861
 10
122.2790223300843
 20
81.70274213367924
 10
122.3029872751997
 20
81.69657325966708
 10
122.3278350260201
 20
81.69277288876603
 10
122.3534256255435
 20
81.69148097797815
 10
122.3534256255435
 20
81.69148097797815
 10
122.379016225067
 20
81.69277288876603
 10
122.4038532099641
 20
81.69657325966708
 10
122.4278289210027
 20
81.70274751664087
 10
122.4508034011807
 20
81.71116646860861
 10
122.4726259275728
 20
81.72170630745313
 10
122.4932211387164
 20
81.73424860801889
 10
122.5124383116862
 20
81.74865879626546
 10
122.53016978725
 20
81.7648130640757
 10
122.5462540765592
 20
81.78258222037078
 10
122.5606265840745
 20
81.80184245703357
 10
122.5731150550241
 20
81.82246458298525
 10
122.5836010642524
 20
81.84432479010866
 10
122.5919877184505
 20
81.86729927028662
 10
122.598124294693
 20
81.89124806651711
 10
122.6019031337475
 20
81.91605813660621
 10
122.6031842786122
 20
81.94160028947509
 10
122.6031842786122
 20
81.94160028947509
 10
122.6019031337475
 20
81.96714244234398
 10
122.598124294693
 20
81.99194712947146
 10
122.5919769525272
 20
82.01590130866356
 10
122.5836118301757
 20
82.03887040587992
 10
122.5731150550241
 20
82.06073599596493
 10
122.5606265840745
 20
82.08135812191662
 10
122.5462648424824
 20
82.10061297561778
 10
122.5301590213268
 20
82.11838751487448
 10
122.5124383116862
 20
82.13454178268472
 10
122.4932211387164
 20
82.14894658796968
 10
122.472636693496
 20
82.16149427149705
 10
122.4507926352574
 20
82.1720394933032
 10
122.4278289210027
 20
82.18045844527094
 10
122.4038639758874
 20
82.1866273192831
 10
122.379016225067
 20
82.19042769018415
 10
122.3534256255435
 20
82.19171960097205
 10
122.3534256255435
 20
82.19171960097205
 10
122.3278350260201
 20
82.19042769018415
 10
122.3029872751997
 20
82.1866273192831
 10
122.2790223300843
 20
82.18045844527094
 10
122.2560693817529
 20
82.1720394933032
 10
122.2342253235143
 20
82.16149427149705
 10
122.2136301123707
 20
82.1489519709313
 10
122.1944021734776
 20
82.13454178268472
 10
122.1766814638371
 20
82.11838751487448
 10
122.1605756426814
 20
82.1006183585794
 10
122.1462246670126
 20
82.08135273895499
 10
122.133736196063
 20
82.06073599596493
 10
122.1232394209114
 20
82.03887040587992
 10
122.1148527667133
 20
82.01590669162519
 10
122.1087161904709
 20
81.99195251243307
 10
122.1049373514163
 20
81.96714244234398
 10
122.1036562065516
 20
81.94160028947509
  0
HATCH
  5
91
330
1F
100
AcDbEntity
  8
ISS138金台
  6
Continuous
 62
   250
420
  2367521
370
    13
100
AcDbHatch
 10
0.0
 20
0.0
 30
0.0
210
0.0
220
0.0
230
1.0
  2
SOLID
 70
     1
 71
     0
 91
        1
 92
        3
 72
     0
 73
     1
 93
       67
 10
124.3746523509657
 20
81.94160028947509
 10
124.3759442617536
 20
81.91606351956781
 10
124.379712334885
 20
81.8912426835555
 10
124.3858381452042
 20
81.86729927028662
 10
124.3942355653255
 20
81.84432479010866
 10
124.4047323404771
 20
81.82246996594687
 10
124.4172208114267
 20
81.80184245703357
 10
124.4315717870955
 20
81.78258222037078
 10
124.4476776082512
 20
81.7648130640757
 10
124.4654090838149
 20
81.74866417922709
 10
124.4846262567848
 20
81.73424322505727
 10
124.5052107020052
 20
81.72170630745313
 10
124.5270547602437
 20
81.71116646860861
 10
124.5500184744985
 20
81.70274213367924
 10
124.5739834196138
 20
81.69657325966708
 10
124.5988311704342
 20
81.69277288876603
 10
124.6244217699576
 20
81.69148097797815
 10
124.6244217699576
 20
81.69148097797815
 10
124.6500231354043
 20
81.69277288876603
 10
124.6748493543782
 20
81.69657325966708
 10
124.6988142994936
 20
81.70274751664087
 10
124.7217887796715
 20
81.71116646860861
 10
124.7436328379101
 20
81.72170630745313
 10
124.7642172831305
 20
81.73424860801889
 10
124.7834344561003
 20
81.74865879626546
 10
124.8011659316641
 20
81.7648130640757
 10
124.8172717528198
 20
81.78258222037078
 10
124.8316119625654
 20
81.80184245703357
 10
124.8441111994382
 20
81.82246458298525
 10
124.8545972086665
 20
81.84432479010866
 10
124.8629838628646
 20
81.86729927028662
 10
124.8691204391071
 20
81.89124806651711
 10
124.8728992781616
 20
81.91605813660621
 10
124.8741804230263
 20
81.94160028947509
 10
124.8741804230263
 20
81.94160028947509
 10
124.8728992781616
 20
81.96714244234398
 10
124.8691096731838
 20
81.99194712947146
 10
124.8629730969414
 20
82.01590130866356
 10
124.8545972086665
 20
82.03887040587992
 10
124.8441004335149
 20
82.06073599596493
 10
124.8316227284886
 20
82.08135812191662
 10
124.8172609868965
 20
82.10061297561778
 10
124.8011659316641
 20
82.11838751487448
 10
124.7834452220235
 20
82.13454178268472
 10
124.7642172831305
 20
82.14894658796968
 10
124.7436220719869
 20
82.16149427149705
 10
124.7217887796715
 20
82.1720394933032
 10
124.6988250654168
 20
82.18045844527094
 10
124.6748601203015
 20
82.1866273192831
 10
124.6500123694811
 20
82.19042769018415
 10
124.6244217699576
 20
82.19171960097205
 10
124.6244217699576
 20
82.19171960097205
 10
124.598820404511
 20
82.19042769018415
 10
124.5739834196138
 20
82.1866273192831
 10
124.5500184744985
 20
82.18045844527094
 10
124.527065526167
 20
82.1720394933032
 10
124.5052107020052
 20
82.16149427149705
 10
124.4846154908616
 20
82.1489519709313
 10
124.4653983178917
 20
82.13454178268472
 10
124.4476776082512
 20
82.11838751487448
 10
124.4315825530187
 20
82.1006183585794
 10
124.4172208114267
 20
82.08135273895499
 10
124.4047215745538
 20
82.06073599596493
 10
124.3942355653255
 20
82.03887040587992
 10
124.3858489111274
 20
82.01590669162519
 10
124.379712334885
 20
81.99195251243307
 10
124.3759334958304
 20
81.96714244234398
 97
        0
 75
     1
 76
     1
 98
        0
  0
LWPOLYLINE
  5
92
330
1F
100
AcDbEntity
  8
ISS138金台
  6
Continuous
 62
   250
420
  2367521
370
    13
100
AcDbPolyline
 90
       68
 70
     0
 43
0.0
 10
124.3746523509657
 20
81.94160028947509
 10
124.3759442617536
 20
81.91606351956781
 10
124.379712334885
 20
81.8912426835555
 10
124.3858381452042
 20
81.86729927028662
 10
124.3942355653255
 20
81.84432479010866
 10
124.4047323404771
 20
81.82246996594687
 10
124.4172208114267
 20
81.80184245703357
 10
124.4315717870955
 20
81.78258222037078
 10
124.4476776082512
 20
81.7648130640757
 10
124.4654090838149
 20
81.74866417922709
 10
124.4846262567848
 20
81.73424322505727
 10
124.5052107020052
 20
81.72170630745313
 10
124.5270547602437
 20
81.71116646860861
 10
124.5500184744985
 20
81.70274213367924
 10
124.5739834196138
 20
81.69657325966708
 10
124.5988311704342
 20
81.69277288876603
 10
124.6244217699576
 20
81.69148097797815
 10
124.6244217699576
 20
81.69148097797815
 10
124.6500231354043
 20
81.69277288876603
 10
124.6748493543782
 20
81.69657325966708
 10
124.6988142994936
 20
81.70274751664087
 10
124.7217887796715
 20
81.71116646860861
 10
124.7436328379101
 20
81.72170630745313
 10
124.7642172831305
 20
81.73424860801889
 10
124.7834344561003
 20
81.74865879626546
 10
124.8011659316641
 20
81.7648130640757
 10
124.8172717528198
 20
81.78258222037078
 10
124.8316119625654
 20
81.80184245703357
 10
124.8441111994382
 20
81.82246458298525
 10
124.8545972086665
 20
81.84432479010866
 10
124.8629838628646
 20
81.86729927028662
 10
124.8691204391071
 20
81.89124806651711
 10
124.8728992781616
 20
81.91605813660621
 10
124.8741804230263
 20
81.94160028947509
 10
124.8741804230263
 20
81.94160028947509
 10
124.8728992781616
 20
81.96714244234398
 10
124.8691096731838
 20
81.99194712947146
 10
124.8629730969414
 20
82.01590130866356
 10
124.8545972086665
 20
82.03887040587992
 10
124.8441004335149
 20
82.06073599596493
 10
124.8316227284886
 20
82.08135812191662
 10
124.8172609868965
 20
82.10061297561778
 10
124.8011659316641
 20
82.11838751487448
 10
124.7834452220235
 20
82.13454178268472
 10
124.7642172831305
 20
82.14894658796968
 10
124.7436220719869
 20
82.16149427149705
 10
124.7217887796715
 20
82.1720394933032
 10
124.6988250654168
 20
82.18045844527094
 10
124.6748601203015
 20
82.1866273192831
 10
124.6500123694811
 20
82.19042769018415
 10
124.6244217699576
 20
82.19171960097205
 10
124.6244217699576
 20
82.19171960097205
 10
124.598820404511
 20
82.19042769018415
 10
124.5739834196138
 20
82.1866273192831
 10
124.5500184744985
 20
82.18045844527094
 10
124.527065526167
 20
82.1720394933032
 10
124.5052107020052
 20
82.16149427149705
 10
124.4846154908616
 20
82.1489519709313
 10
124.4653983178917
 20
82.13454178268472
 10
124.4476776082512
 20
82.11838751487448
 10
124.4315825530187
 20
82.1006183585794
 10
124.4172208114267
 20
82.08135273895499
 10
124.4047215745538
 20
82.06073599596493
 10
124.3942355653255
 20
82.03887040587992
 10
124.3858489111274
 20
82.01590669162519
 10
124.379712334885
 20
81.99195251243307
 10
124.3759334958304
 20
81.96714244234398
 10
124.3746523509657
 20
81.94160028947509
  0
TEXT
  5
93
330
1F
100
AcDbEntity
  8
ISS138金台
  6
Continuous
 62
   250
420
  2367521
100
AcDbText
 10
133.6886153078723
 20
113.9856333076057
 30
0.0
 40
2.150533301035563
  1
7
 50
90.00000250447816
 41
1.024999618530273
  7
MS Gothic
100
AcDbText
  0
TEXT
  5
94
330
1F
100
AcDbEntity
  8
ISS138金台
  6
Continuous
 62
   250
420
  2367521
100
AcDbText
 10
121.5817242482444
 20
125.5327675177631
 30
0.0
 40
2.150533301035563
  1
4.1
 41
0.798000733057658
  7
MS Gothic
100
AcDbText
  0
TEXT
  5
95
330
1F
100
AcDbEntity
  8
ISS138金台
  6
Continuous
 62
   250
420
  2367521
100
AcDbText
 10
109.5233378930205
 20
103.8940767405513
 30
0.0
 40
2.150533301035563
  1
26
 50
90.00000250447816
 41
0.9480018615722654
  7
MS Gothic
100
AcDbText
  0
TEXT
  5
96
330
1F
100
AcDbEntity
  8
ISS138金台
  6
Continuous
 62
   250
420
  2367521
100
AcDbText
 10
125.2417936377201
 20
86.90359066532511
 30
0.0
 40
2.150533301035563
  1
0 .  8
 41
0.432000478108724
  7
MS Gothic
100
AcDbText
  0
TEXT
  5
97
330
1F
100
AcDbEntity
  8
ISS138金台
  6
Continuous
 62
   250
420
  2367521
100
AcDbText
 10
126.4327738953054
 20
81.91954418561255
 30
0.0
 40
2.150533301035563
  1
2 .  5
 41
0.418999989827474
  7
MS Gothic
100
AcDbText
  0
LINE
  5
98
330
1F
100
AcDbEntity
  8
ISS138金台
  6
UserDefined01
 62
   140
420
    44526
370
    13
100
AcDbLine
 10
116.6207868227502
 20
100.5065251832517
 30
0.0
 11
116.6207868227502
 21
92.39263641622125
 31
0.0
  0
TEXT
  5
99
330
1F
100
AcDbEntity
  8
ISS138金台
  6
Continuous
 62
   140
420
    44526
100
AcDbText
 10
115.4898694786238
 20
96.08042804280048
 30
0.0
 40
1.881716638406118
  1
8
 50
90.00000250447816
 41
1.097499302455357
  7
MS Gothic
100
AcDbText
  0
HATCH
  5
9A
330
1F
100
AcDbEntity
  8
ISS138金台
  6
Continuous
 62
   140
420
    44526
370
    50
100
AcDbHatch
 10
0.0
 20
0.0
 30
0.0
210
0.0
220
0.0
230
1.0
  2
SOLID
 70
     1
 71
     0
 91
        1
 92
        3
 72
     0
 73
     1
 93
        3
 10
125.7926536317528
 20
101.373289662693
 10
125.7919430808195
 20
99.64150478337413
 10
124.2937033741812
 20
100.5065144173285
 97
        0
 75
     1
 76
     1
 98
        0
  0
LWPOLYLINE
  5
9B
330
1F
100
AcDbEntity
  8
ISS138金台
  6
Continuous
 62
   140
420
    44526
370
    50
100
AcDbPolyline
 90
        4
 70
     0
 43
0.0
 10
125.7926536317528
 20
101.373289662693
 10
125.7919430808195
 20
99.64150478337413
 10
124.2937033741812
 20
100.5065144173285
 10
125.7926536317528
 20
101.373289662693
  0
ENDSEC
  0
SECTION
  2
OBJECTS
  0
DICTIONARY
  5
C
330
0
100
AcDbDictionary
281
     1
  3
ACAD_DETAILVIEWSTYLE
350
A3
  3
ACAD_GROUP
350
D
  3
ACAD_LAYOUT
350
1A
  3
ACAD_MATERIAL
350
43
  3
ACAD_MLEADERSTYLE
350
5B
  3
ACAD_MLINESTYLE
350
17
  3
ACAD_PLOTSETTINGS
350
19
  3
ACAD_PLOTSTYLENAME
350
E
  3
ACAD_SCALELIST
350
47
  3
ACAD_SECTIONVIEWSTYLE
350
A4
  3
ACAD_TABLESTYLE
350
59
  3
ACAD_VISUALSTYLE
350
2A
  3
ACDB_RECOMPOSE_DATA
350
A0
  3
AcDbVariableDictionary
350
9C
  0
SUN
  5
5D
330
29
100
AcDbSun
 90
        1
290
     0
 63
     7
421
 16777215
 40
1.0
291
     1
 91
  2455826
 92
 54000000
292
     0
 70
     2
 71
   256
280
     1
  0
DICTIONARY
  5
A3
102
{ACAD_REACTORS
330
C
102
}
330
C
100
AcDbDictionary
281
     1
  0
DICTIONARY
  5
D
102
{ACAD_REACTORS
330
C
102
}
330
C
100
AcDbDictionary
281
     1
  0
DICTIONARY
  5
1A
102
{ACAD_REACTORS
330
C
102
}
330
C
100
AcDbDictionary
281
     1
  3
Layout1
350
1E
  3
Layout2
350
26
  3
Model
350
22
  0
DICTIONARY
  5
43
102
{ACAD_REACTORS
330
C
102
}
330
C
100
AcDbDictionary
281
     1
  3
ByBlock
350
45
  3
ByLayer
350
44
  3
Global
350
46
  0
DICTIONARY
  5
5B
102
{ACAD_REACTORS
330
C
102
}
330
C
100
AcDbDictionary
281
     1
  3
Standard
350
5C
  0
DICTIONARY
  5
17
102
{ACAD_REACTORS
330
C
102
}
330
C
100
AcDbDictionary
281
     1
  3
Standard
350
18
  0
DICTIONARY
  5
19
102
{ACAD_REACTORS
330
C
102
}
330
C
100
AcDbDictionary
281
     1
  0
ACDBDICTIONARYWDFLT
  5
E
102
{ACAD_REACTORS
330
C
102
}
330
C
100
AcDbDictionary
281
     1
  3
Normal
350
F
100
AcDbDictionaryWithDefault
340
F
  0
DICTIONARY
  5
47
102
{ACAD_REACTORS
330
C
102
}
330
C
100
AcDbDictionary
281
     1
  3
A0
350
48
  3
A1
350
49
  3
A2
350
4A
  3
A3
350
4B
  3
A4
350
4C
  3
A5
350
4D
  3
A6
350
4E
  3
A7
350
4F
  3
A8
350
50
  3
A9
350
51
  3
B0
350
52
  3
B1
350
53
  3
B2
350
54
  3
B3
350
55
  3
B4
350
56
  3
B5
350
57
  3
B6
350
58
  0
DICTIONARY
  5
A4
102
{ACAD_REACTORS
330
C
102
}
330
C
100
AcDbDictionary
281
     1
  0
DICTIONARY
  5
59
102
{ACAD_REACTORS
330
C
102
}
330
C
100
AcDbDictionary
281
     1
  3
Standard
350
5A
  0
DICTIONARY
  5
2A
102
{ACAD_REACTORS
330
C
102
}
330
C
100
AcDbDictionary
281
     1
  3
2dWireframe
350
2F
  3
Basic
350
32
  3
Brighten
350
36
  3
ColorChange
350
3A
  3
Conceptual
350
34
  3
Dim
350
35
  3
EdgeColorOff
350
3D
  3
Facepattern
350
39
  3
Flat
350
2B
  3
FlatWithEdges
350
2C
  3
Gouraud
350
2D
  3
GouraudWithEdges
350
2E
  3
Hidden
350
31
  3
JitterOff
350
3B
  3
Linepattern
350
38
  3
OverhangOff
350
3C
  3
Realistic
350
33
  3
Shaded
350
42
  3
Shaded with edges
350
41
  3
Shades of Gray
350
3E
  3
Sketchy
350
3F
  3
Thicken
350
37
  3
Wireframe
350
30
  3
X-Ray
350
40
  0
XRECORD
  5
A0
102
{ACAD_REACTORS
330
C
102
}
330
C
100
AcDbXrecord
280
     1
 90
        1
330
5A
  0
DICTIONARY
  5
9C
102
{ACAD_REACTORS
330
C
102
}
330
C
100
AcDbDictionary
281
     1
  3
CANNOSCALE
350
9D
  3
CENTEREXE
350
A5
  3
CENTERLTYPEFILE
350
A6
  3
CMLEADERSTYLE
350
A2
  3
CTABLESTYLE
350
A1
  0
LAYOUT
  5
1E
102
{ACAD_REACTORS
330
1A
102
}
330
1A
100
AcDbPlotSettings
  1

  2
none_device
  4

  6

 40
0.0
 41
0.0
 42
0.0
 43
0.0
 44
0.0
 45
0.0
 46
0.0
 47
0.0
 48
0.0
 49
0.0
140
0.0
141
0.0
142
1.0
143
1.0
 70
   688
 72
     1
 73
     0
 74
     5
  7

 75
    16
 76
     0
 77
     5
 78
   300
147
1.0
148
0.0
149
0.0
100
AcDbLayout
  1
Layout1
 70
     1
 71
     1
 10
0.0
 20
0.0
 11
420.0
 21
297.0
 12
0.0
 22
0.0
 32
0.0
 14
1.000000000000000E+20
 24
1.000000000000000E+20
 34
1.000000000000000E+20
 15
-1.000000000000000E+20
 25
-1.000000000000000E+20
 35
-1.000000000000000E+20
146
0.0
 13
0.0
 23
0.0
 33
0.0
 16
1.0
 26
0.0
 36
0.0
 17
0.0
 27
1.0
 37
0.0
 76
     0
330
1B
  0
LAYOUT
  5
26
102
{ACAD_REACTORS
330
1A
102
}
330
1A
100
AcDbPlotSettings
  1

  2
none_device
  4

  6

 40
0.0
 41
0.0
 42
0.0
 43
0.0
 44
0.0
 45
0.0
 46
0.0
 47
0.0
 48
0.0
 49
0.0
140
0.0
141
0.0
142
1.0
143
1.0
 70
   688
 72
     1
 73
     0
 74
     5
  7

 75
    16
 76
     0
 77
     5
 78
   300
147
1.0
148
0.0
149
0.0
100
AcDbLayout
  1
Layout2
 70
     1
 71
     2
 10
0.0
 20
0.0
 11
0.0
 21
0.0
 12
0.0
 22
0.0
 32
0.0
 14
0.0
 24
0.0
 34
0.0
 15
0.0
 25
0.0
 35
0.0
146
0.0
 13
0.0
 23
0.0
 33
0.0
 16
1.0
 26
0.0
 36
0.0
 17
0.0
 27
1.0
 37
0.0
 76
     0
330
23
  0
LAYOUT
  5
22
102
{ACAD_REACTORS
330
1A
102
}
330
1A
100
AcDbPlotSettings
  1

  2
none_device
  4
Letter_(8.50_x_11.00_Inches)
  6

 40
6.35
 41
6.35
 42
6.35000508
 43
6.35000508
 44
215.9
 45
279.4
 46
0.0
 47
0.0
 48
0.0
 49
0.0
140
0.0
141
0.0
142
1.0
143
1.0
 70
  1712
 72
     1
 73
     0
 74
     0
  7

 75
     0
 76
     0
 77
     5
 78
   300
147
1.0
148
0.0
149
0.0
100
AcDbLayout
  1
Model
 70
     1
 71
     0
 10
0.0
 20
0.0
 11
302.9997823349792
 21
216.0016055409748
 12
0.0
 22
0.0
 32
0.0
 14
0.0
 24
0.0
 34
0.0
 15
302.9997823349792
 25
216.0016055409748
 35
0.0
146
0.0
 13
0.0
 23
0.0
 33
0.0
 16
1.0
 26
0.0
 36
0.0
 17
0.0
 27
1.0
 37
0.0
 76
     0
330
1F
331
29
  0
MATERIAL
  5
45
102
{ACAD_REACTORS
330
43
102
}
330
43
100
AcDbMaterial
  1
ByBlock
 72
     1
 94
      127
  0
MATERIAL
  5
44
102
{ACAD_REACTORS
330
43
102
}
330
43
100
AcDbMaterial
  1
ByLayer
 72
     1
 94
      127
  0
MATERIAL
  5
46
102
{ACAD_REACTORS
330
43
102
}
330
43
100
AcDbMaterial
  1
Global
 72
     1
 94
      127
  0
MLEADERSTYLE
  5
5C
102
{ACAD_REACTORS
330
5B
102
}
330
5B
100
AcDbMLeaderStyle
179
     2
170
     2
171
     1
172
     0
 90
        2
 40
0.0
 41
0.0
173
     1
 91
-1056964608
340
14
 92
       -2
290
     1
 42
2.0
291
     1
 43
8.0
  3
Standard
341
0
 44
4.0
300

342
11
174
     1
178
     6
175
     1
176
     0
 93
-1056964608
 45
4.0
292
     0
297
     0
 46
4.0
343
0
 94
-1056964608
 47
1.0
 49
1.0
140
1.0
293
     1
141
0.0
294
     1
177
     0
142
1.0
295
     0
296
     0
143
3.75
271
     0
272
     9
273
     9
298
     0
  0
MLINESTYLE
  5
18
102
{ACAD_REACTORS
330
17
102
}
330
17
100
AcDbMlineStyle
  2
Standard
 70
     0
  3

 62
   256
 51
90.0
 52
90.0
 71
     2
 49
0.5
 62
   256
  6
BYLAYER
 49
-0.5
 62
   256
  6
BYLAYER
  0
ACDBPLACEHOLDER
  5
F
102
{ACAD_REACTORS
330
E
102
}
330
E
  0
SCALE
  5
48
102
{ACAD_REACTORS
330
47
102
}
330
47
100
AcDbScale
 70
     0
300
1:1
140
1.0
141
1.0
290
     1
  0
SCALE
  5
49
102
{ACAD_REACTORS
330
47
102
}
330
47
100
AcDbScale
 70
     0
300
1:2
140
1.0
141
2.0
290
     0
  0
SCALE
  5
4A
102
{ACAD_REACTORS
330
47
102
}
330
47
100
AcDbScale
 70
     0
300
1:4
140
1.0
141
4.0
290
     0
  0
SCALE
  5
4B
102
{ACAD_REACTORS
330
47
102
}
330
47
100
AcDbScale
 70
     0
300
1:5
140
1.0
141
5.0
290
     0
  0
SCALE
  5
4C
102
{ACAD_REACTORS
330
47
102
}
330
47
100
AcDbScale
 70
     0
300
1:8
140
1.0
141
8.0
290
     0
  0
SCALE
  5
4D
102
{ACAD_REACTORS
330
47
102
}
330
47
100
AcDbScale
 70
     0
300
1:10
140
1.0
141
10.0
290
     0
  0
SCALE
  5
4E
102
{ACAD_REACTORS
330
47
102
}
330
47
100
AcDbScale
 70
     0
300
1:16
140
1.0
141
16.0
290
     0
  0
SCALE
  5
4F
102
{ACAD_REACTORS
330
47
102
}
330
47
100
AcDbScale
 70
     0
300
1:20
140
1.0
141
20.0
290
     0
  0
SCALE
  5
50
102
{ACAD_REACTORS
330
47
102
}
330
47
100
AcDbScale
 70
     0
300
1:30
140
1.0
141
30.0
290
     0
  0
SCALE
  5
51
102
{ACAD_REACTORS
330
47
102
}
330
47
100
AcDbScale
 70
     0
300
1:40
140
1.0
141
40.0
290
     0
  0
SCALE
  5
52
102
{ACAD_REACTORS
330
47
102
}
330
47
100
AcDbScale
 70
     0
300
1:50
140
1.0
141
50.0
290
     0
  0
SCALE
  5
53
102
{ACAD_REACTORS
330
47
102
}
330
47
100
AcDbScale
 70
     0
300
1:100
140
1.0
141
100.0
290
     0
  0
SCALE
  5
54
102
{ACAD_REACTORS
330
47
102
}
330
47
100
AcDbScale
 70
     0
300
2:1
140
2.0
141
1.0
290
     0
  0
SCALE
  5
55
102
{ACAD_REACTORS
330
47
102
}
330
47
100
AcDbScale
 70
     0
300
4:1
140
4.0
141
1.0
290
     0
  0
SCALE
  5
56
102
{ACAD_REACTORS
330
47
102
}
330
47
100
AcDbScale
 70
     0
300
8:1
140
8.0
141
1.0
290
     0
  0
SCALE
  5
57
102
{ACAD_REACTORS
330
47
102
}
330
47
100
AcDbScale
 70
     0
300
10:1
140
10.0
141
1.0
290
     0
  0
SCALE
  5
58
102
{ACAD_REACTORS
330
47
102
}
330
47
100
AcDbScale
 70
     0
300
100:1
140
100.0
141
1.0
290
     0
  0
TABLESTYLE
  5
5A
102
{ACAD_REACTORS
330
59
102
}
102
{ACAD_XDICTIONARY
360
9E
102
}
330
59
100
AcDbTableStyle
  3
Standard
 70
     0
 71
     0
 40
0.06
 41
0.06
280
     0
281
     0
  7
Standard
140
4.5
170
     2
 62
     0
 63
   257
283
     0
 90
        4
 91
        0
  1

274
    -2
284
     1
 64
     0
275
    -2
285
     1
 65
     0
276
    -2
286
     1
 66
     0
277
    -2
287
     1
 67
     0
278
    -2
288
     1
 68
     0
279
    -2
289
     1
 69
     0
  7
Standard
140
6.0
170
     5
 62
     0
 63
   257
283
     0
 90
        4
 91
        0
  1

274
    -2
284
     1
 64
     0
275
    -2
285
     1
 65
     0
276
    -2
286
     1
 66
     0
277
    -2
287
     1
 67
     0
278
    -2
288
     1
 68
     0
279
    -2
289
     1
 69
     0
  7
Standard
140
4.5
170
     5
 62
     0
 63
   257
283
     0
 90
        4
 91
        0
  1

274
    -2
284
     1
 64
     0
275
    -2
285
     1
 65
     0
276
    -2
286
     1
 66
     0
277
    -2
287
     1
 67
     0
278
    -2
288
     1
 68
     0
279
    -2
289
     1
 69
     0
  0
VISUALSTYLE
  5
2F
102
{ACAD_REACTORS
330
2A
102
}
330
2A
100
AcDbVisualStyle
  2
2dWireframe
 70
     4
177
     3
291
     0
 70
    58
 90
        0
176
     1
 90
        2
176
     1
 90
        0
176
     1
 90
        0
176
     1
 40
0.6
176
     1
 40
30.0
176
     1
 62
     7
420
 16777215
176
     1
 90
        1
176
     1
 90
        4
176
     1
 62
     7
176
     1
 62
   257
176
     1
 90
        1
176
     1
 90
        1
176
     1
 40
1.0
176
     1
 90
        0
176
     1
 62
   257
176
     1
 40
1.0
176
     1
 90
        1
176
     1
 90
        6
176
     1
 90
        2
176
     1
 62
     7
176
     1
 90
        5
176
     1
 90
        0
176
     1
 90
        0
176
     1
290
     0
176
     1
 90
        1
176
     1
 40
0.0
176
     1
 90
        0
176
     1
290
     1
176
     1
290
     1
176
     1
290
     0
176
     1
290
     0
176
     1
290
     0
176
     1
290
     0
176
     1
290
     0
176
     1
290
     0
176
     1
290
     0
176
     1
 90
       50
176
     1
 40
0.0
176
     1
 40
1.0
176
     1
 90
        0
176
     1
 62
    18
420
        0
176
     1
 90
       50
176
     1
 90
        3
176
     1
 62
     5
420
      255
176
     1
290
     0
176
     1
 90
       50
176
     1
 90
       50
176
     1
 90
       50
176
     1
290
     0
176
     1
 90
       50
176
     1
 62
   256
176
     0
 40
1.0
176
     0
 90
        2
176
     1
  1
strokes_ogs.tif
176
     1
290
     0
176
     1
 40
1.0
176
     1
 40
1.0
176
     1
  0
VISUALSTYLE
  5
32
102
{ACAD_REACTORS
330
2A
102
}
330
2A
100
AcDbVisualStyle
  2
Basic
 70
     7
177
     3
291
     1
 70
    58
 90
        1
176
     1
 90
        0
176
     1
 90
        1
176
     1
 90
        0
176
     1
 40
0.6
176
     1
 40
30.0
176
     1
 62
     7
420
 16777215
176
     1
 90
        0
176
     1
 90
        4
176
     1
 62
     7
176
     1
 62
   257
176
     1
 90
        1
176
     1
 90
        1
176
     1
 40
1.0
176
     1
 90
        8
176
     1
 62
     7
176
     1
 40
1.0
176
     1
 90
        1
176
     1
 90
        6
176
     1
 90
        2
176
     1
 62
     7
176
     1
 90
        5
176
     1
 90
        0
176
     1
 90
        0
176
     1
290
     0
176
     1
 90
        1
176
     1
 40
0.0
176
     1
 90
        0
176
     1
290
     0
176
     1
290
     1
176
     1
290
     1
176
     1
290
     0
176
     1
290
     0
176
     1
290
     0
176
     1
290
     0
176
     1
290
     0
176
     1
290
     0
176
     1
 90
       50
176
     1
 40
0.0
176
     1
 40
1.0
176
     1
 90
        0
176
     1
 62
    18
420
        0
176
     1
 90
       50
176
     1
 90
        3
176
     1
 62
     5
420
      255
176
     1
290
     0
176
     1
 90
       50
176
     1
 90
       50
176
     1
 90
       50
176
     1
290
     0
176
     1
 90
       50
176
     1
 62
   256
176
     0
 40
1.0
176
     0
 90
        2
176
     1
  1
strokes_ogs.tif
176
     1
290
     0
176
     1
 40
1.0
176
     1
 40
1.0
176
     1
  0
VISUALSTYLE
  5
36
102
{ACAD_REACTORS
330
2A
102
}
330
2A
100
AcDbVisualStyle
  2
Brighten
 70
    12
177
     3
291
     1
 70
    58
 90
        2
176
     1
 90
        2
176
     1
 90
        0
176
     1
 90
        0
176
     1
 40
0.6
176
     1
 40
30.0
176
     1
 62
     7
420
 16777215
176
     1
 90
        1
176
     1
 90
        4
176
     1
 62
     7
176
     1
 62
   257
176
     1
 90
        1
176
     1
 90
        1
176
     1
 40
1.0
176
     1
 90
        8
176
     1
 62
     7
176
     1
 40
1.0
176
     1
 90
        1
176
     1
 90
        6
176
     1
 90
        2
176
     1
 62
     7
176
     1
 90
        5
176
     1
 90
        0
176
     1
 90
        0
176
     1
290
     0
176
     1
 90
        1
176
     1
 40
50.0
176
     1
 90
        0
176
     1
290
     0
176
     1
290
     1
176
     1
290
     1
176
     1
290
     0
176
     1
290
     0
176
     1
290
     0
176
     1
290
     0
176
     1
290
     0
176
     1
290
     0
176
     1
 90
       50
176
     1
 40
0.0
176
     1
 40
1.0
176
     1
 90
        0
176
     1
 62
    18
420
        0
176
     1
 90
       50
176
     1
 90
        3
176
     1
 62
     5
420
      255
176
     1
290
     0
176
     1
 90
       50
176
     1
 90
       50
176
     1
 90
       50
176
     1
290
     0
176
     1
 90
       50
176
     1
 62
   256
176
     0
 40
1.0
176
     0
 90
        2
176
     1
  1
strokes_ogs.tif
176
     1
290
     0
176
     1
 40
1.0
176
     1
 40
1.0
176
     1
  0
VISUALSTYLE
  5
3A
102
{ACAD_REACTORS
330
2A
102
}
330
2A
100
AcDbVisualStyle
  2
ColorChange
 70
    16
177
     3
291
     1
 70
    58
 90
        2
176
     1
 90
        2
176
     1
 90
        3
176
     1
 90
        0
176
     1
 40
0.6
176
     1
 40
30.0
176
     1
 62
     8
420
  8421504
176
     1
 90
        1
176
     1
 90
        4
176
     1
 62
     7
176
     1
 62
   257
176
     1
 90
        1
176
     1
 90
        1
176
     1
 40
1.0
176
     1
 90
        8
176
     1
 62
     8
420
  8421504
176
     1
 40
1.0
176
     1
 90
        1
176
     1
 90
        6
176
     1
 90
        2
176
     1
 62
     7
176
     1
 90
        5
176
     1
 90
        0
176
     1
 90
        0
176
     1
290
     0
176
     1
 90
        1
176
     1
 40
0.0
176
     1
 90
        0
176
     1
290
     0
176
     1
290
     1
176
     1
290
     1
176
     1
290
     0
176
     1
290
     0
176
     1
290
     0
176
     1
290
     0
176
     1
290
     0
176
     1
290
     0
176
     1
 90
       50
176
     1
 40
0.0
176
     1
 40
1.0
176
     1
 90
        0
176
     1
 62
    18
420
        0
176
     1
 90
       50
176
     1
 90
        3
176
     1
 62
     5
420
      255
176
     1
290
     0
176
     1
 90
       50
176
     1
 90
       50
176
     1
 90
       50
176
     1
290
     0
176
     1
 90
       50
176
     1
 62
   256
176
     0
 40
1.0
176
     0
 90
        2
176
     1
  1
strokes_ogs.tif
176
     1
290
     0
176
     1
 40
1.0
176
     1
 40
1.0
176
     1
  0
VISUALSTYLE
  5
34
102
{ACAD_REACTORS
330
2A
102
}
330
2A
100
AcDbVisualStyle
  2
Conceptual
 70
     9
177
     3
291
     0
 70
    58
 90
        3
176
     1
 90
        2
176
     1
 90
        0
176
     1
 90
        0
176
     1
 40
0.6
176
     1
 40
30.0
176
     1
 62
     7
420
 16777215
176
     1
 90
        2
176
     1
 90
        2
176
     1
 62
     7
176
     1
 62
   257
176
     1
 90
        1
176
     1
 90
        1
176
     1
 40
179.0
176
     1
 90
        8
176
     1
 62
     7
176
     1
 40
1.0
176
     1
 90
        1
176
     1
 90
        6
176
     1
 90
        2
176
     1
 62
     7
176
     1
 90
        3
176
     1
 90
        0
176
     1
 90
        0
176
     1
290
     0
176
     1
 90
        1
176
     1
 40
0.0
176
     1
 90
        0
176
     1
290
     0
176
     1
290
     1
176
     1
290
     1
176
     1
290
     0
176
     1
290
     0
176
     1
290
     0
176
     1
290
     0
176
     1
290
     0
176
     1
290
     0
176
     1
 90
       50
176
     1
 40
0.0
176
     1
 40
1.0
176
     1
 90
        0
176
     1
 62
    18
420
        0
176
     1
 90
       50
176
     1
 90
        3
176
     1
 62
     5
420
      255
176
     1
290
     0
176
     1
 90
       50
176
     1
 90
       50
176
     1
 90
       50
176
     1
290
     0
176
     1
 90
       50
176
     1
 62
   256
176
     0
 40
1.0
176
     0
 90
        2
176
     1
  1
strokes_ogs.tif
176
     1
290
     0
176
     1
 40
1.0
176
     1
 40
1.0
176
     1
  0
VISUALSTYLE
  5
35
102
{ACAD_REACTORS
330
2A
102
}
330
2A
100
AcDbVisualStyle
  2
Dim
 70
    11
177
     3
291
     1
 70
    58
 90
        2
176
     1
 90
        2
176
     1
 90
        0
176
     1
 90
        0
176
     1
 40
0.6
176
     1
 40
30.0
176
     1
 62
     7
420
 16777215
176
     1
 90
        1
176
     1
 90
        4
176
     1
 62
     7
176
     1
 62
   257
176
     1
 90
        1
176
     1
 90
        1
176
     1
 40
1.0
176
     1
 90
        8
176
     1
 62
     7
176
     1
 40
1.0
176
     1
 90
        1
176
     1
 90
        6
176
     1
 90
        2
176
     1
 62
     7
176
     1
 90
        5
176
     1
 90
        0
176
     1
 90
        0
176
     1
290
     0
176
     1
 90
        1
176
     1
 40
-50.0
176
     1
 90
        0
176
     1
290
     0
176
     1
290
     1
176
     1
290
     1
176
     1
290
     0
176
     1
290
     0
176
     1
290
     0
176
     1
290
     0
176
     1
290
     0
176
     1
290
     0
176
     1
 90
       50
176
     1
 40
0.0
176
     1
 40
1.0
176
     1
 90
        0
176
     1
 62
    18
420
        0
176
     1
 90
       50
176
     1
 90
        3
176
     1
 62
     5
420
      255
176
     1
290
     0
176
     1
 90
       50
176
     1
 90
       50
176
     1
 90
       50
176
     1
290
     0
176
     1
 90
       50
176
     1
 62
   256
176
     0
 40
1.0
176
     0
 90
        2
176
     1
  1
strokes_ogs.tif
176
     1
290
     0
176
     1
 40
1.0
176
     1
 40
1.0
176
     1
  0
VISUALSTYLE
  5
3D
102
{ACAD_REACTORS
330
2A
102
}
330
2A
100
AcDbVisualStyle
  2
EdgeColorOff
 70
    22
177
     3
291
     1
 70
    58
 90
        2
176
     0
 90
        2
176
     0
 90
        0
176
     0
 90
        0
176
     0
 40
0.6
176
     0
 40
30.0
176
     0
 62
     7
420
 16777215
176
     0
 90
        1
176
     0
 90
        4
176
     0
 62
     7
176
     0
 62
   257
176
     0
 90
        1
176
     0
 90
        1
176
     0
 40
1.0
176
     0
 90
        8
176
     2
 62
     7
176
     0
 40
1.0
176
     0
 90
        1
176
     0
 90
        6
176
     0
 90
        2
176
     0
 62
     7
176
     0
 90
        5
176
     0
 90
        0
176
     0
 90
        0
176
     0
290
     0
176
     0
 90
        1
176
     0
 40
0.0
176
     0
 90
        0
176
     0
290
     0
176
     0
290
     1
176
     0
290
     1
176
     0
290
     0
176
     0
290
     0
176
     0
290
     0
176
     0
290
     0
176
     0
290
     0
176
     0
290
     0
176
     0
 90
       50
176
     0
 40
0.0
176
     0
 40
1.0
176
     0
 90
        0
176
     0
 62
    18
420
        0
176
     0
 90
       50
176
     0
 90
        3
176
     0
 62
     5
420
      255
176
     0
290
     0
176
     0
 90
       50
176
     0
 90
       50
176
     0
 90
       50
176
     0
290
     0
176
     0
 90
       50
176
     0
 62
   256
176
     0
 40
1.0
176
     0
 90
        2
176
     0
  1
strokes_ogs.tif
176
     0
290
     0
176
     0
 40
1.0
176
     0
 40
1.0
176
     0
  0
VISUALSTYLE
  5
39
102
{ACAD_REACTORS
330
2A
102
}
330
2A
100
AcDbVisualStyle
  2
Facepattern
 70
    15
177
     3
291
     1
 70
    58
 90
        2
176
     1
 90
        2
176
     1
 90
        0
176
     1
 90
        0
176
     1
 40
0.6
176
     1
 40
30.0
176
     1
 62
     7
420
 16777215
176
     1
 90
        1
176
     1
 90
        4
176
     1
 62
     7
176
     1
 62
   257
176
     1
 90
        1
176
     1
 90
        1
176
     1
 40
1.0
176
     1
 90
        8
176
     1
 62
     7
176
     1
 40
1.0
176
     1
 90
        1
176
     1
 90
        6
176
     1
 90
        2
176
     1
 62
     7
176
     1
 90
        5
176
     1
 90
        0
176
     1
 90
        0
176
     1
290
     0
176
     1
 90
        1
176
     1
 40
0.0
176
     1
 90
        0
176
     1
290
     0
176
     1
290
     1
176
     1
290
     1
176
     1
290
     0
176
     1
290
     0
176
     1
290
     0
176
     1
290
     0
176
     1
290
     0
176
     1
290
     0
176
     1
 90
       50
176
     1
 40
0.0
176
     1
 40
1.0
176
     1
 90
        0
176
     1
 62
    18
420
        0
176
     1
 90
       50
176
     1
 90
        3
176
     1
 62
     5
420
      255
176
     1
290
     0
176
     1
 90
       50
176
     1
 90
       50
176
     1
 90
       50
176
     1
290
     0
176
     1
 90
       50
176
     1
 62
   256
176
     0
 40
1.0
176
     0
 90
        2
176
     1
  1
strokes_ogs.tif
176
     1
290
     0
176
     1
 40
1.0
176
     1
 40
1.0
176
     1
  0
VISUALSTYLE
  5
2B
102
{ACAD_REACTORS
330
2A
102
}
330
2A
100
AcDbVisualStyle
  2
Flat
 70
     0
177
     3
291
     1
 70
    58
 90
        2
176
     1
 90
        1
176
     1
 90
        1
176
     1
 90
        2
176
     1
 40
0.6
176
     1
 40
30.0
176
     1
 62
     7
420
 16777215
176
     1
 90
        0
176
     1
 90
        0
176
     1
 62
     7
176
     1
 62
   257
176
     1
 90
        1
176
     1
 90
        1
176
     1
 40
1.0
176
     1
 90
        8
176
     1
 62
     7
176
     1
 40
1.0
176
     1
 90
        1
176
     1
 90
        6
176
     1
 90
        2
176
     1
 62
     7
176
     1
 90
        5
176
     1
 90
        0
176
     1
 90
        0
176
     1
290
     0
176
     1
 90
       13
176
     1
 40
0.0
176
     1
 90
        0
176
     1
290
     0
176
     1
290
     1
176
     1
290
     1
176
     1
290
     0
176
     1
290
     0
176
     1
290
     0
176
     1
290
     0
176
     1
290
     0
176
     1
290
     0
176
     1
 90
       50
176
     1
 40
0.0
176
     1
 40
1.0
176
     1
 90
        0
176
     1
 62
    18
420
        0
176
     1
 90
       50
176
     1
 90
        3
176
     1
 62
     5
420
      255
176
     1
290
     0
176
     1
 90
       50
176
     1
 90
       50
176
     1
 90
       50
176
     1
290
     0
176
     1
 90
       50
176
     1
 62
   256
176
     0
 40
1.0
176
     0
 90
        2
176
     1
  1
strokes_ogs.tif
176
     1
290
     0
176
     1
 40
1.0
176
     1
 40
1.0
176
     1
  0
VISUALSTYLE
  5
2C
102
{ACAD_REACTORS
330
2A
102
}
330
2A
100
AcDbVisualStyle
  2
FlatWithEdges
 70
     1
177
     3
291
     1
 70
    58
 90
        2
176
     1
 90
        1
176
     1
 90
        1
176
     1
 90
        2
176
     1
 40
0.6
176
     1
 40
30.0
176
     1
 62
     7
420
 16777215
176
     1
 90
        1
176
     1
 90
        0
176
     1
 62
     7
176
     1
 62
   257
176
     1
 90
        1
176
     1
 90
        1
176
     1
 40
1.0
176
     1
 90
        0
176
     1
 62
   257
176
     1
 40
1.0
176
     1
 90
        1
176
     1
 90
        6
176
     1
 90
        2
176
     1
 62
     7
176
     1
 90
        5
176
     1
 90
        0
176
     1
 90
        0
176
     1
290
     0
176
     1
 90
       13
176
     1
 40
0.0
176
     1
 90
        0
176
     1
290
     0
176
     1
290
     1
176
     1
290
     1
176
     1
290
     0
176
     1
290
     0
176
     1
290
     0
176
     1
290
     0
176
     1
290
     0
176
     1
290
     0
176
     1
 90
       50
176
     1
 40
0.0
176
     1
 40
1.0
176
     1
 90
        0
176
     1
 62
    18
420
        0
176
     1
 90
       50
176
     1
 90
        3
176
     1
 62
     5
420
      255
176
     1
290
     0
176
     1
 90
       50
176
     1
 90
       50
176
     1
 90
       50
176
     1
290
     0
176
     1
 90
       50
176
     1
 62
   256
176
     0
 40
1.0
176
     0
 90
        2
176
     1
  1
strokes_ogs.tif
176
     1
290
     0
176
     1
 40
1.0
176
     1
 40
1.0
176
     1
  0
VISUALSTYLE
  5
2D
102
{ACAD_REACTORS
330
2A
102
}
330
2A
100
AcDbVisualStyle
  2
Gouraud
 70
     2
177
     3
291
     1
 70
    58
 90
        2
176
     1
 90
        2
176
     1
 90
        1
176
     1
 90
        2
176
     1
 40
0.6
176
     1
 40
30.0
176
     1
 62
     7
420
 16777215
176
     1
 90
        0
176
     1
 90
        0
176
     1
 62
     7
176
     1
 62
   257
176
     1
 90
        1
176
     1
 90
        1
176
     1
 40
1.0
176
     1
 90
        0
176
     1
 62
     7
176
     1
 40
1.0
176
     1
 90
        1
176
     1
 90
        6
176
     1
 90
        2
176
     1
 62
     7
176
     1
 90
        5
176
     1
 90
        0
176
     1
 90
        0
176
     1
290
     0
176
     1
 90
       13
176
     1
 40
0.0
176
     1
 90
        0
176
     1
290
     0
176
     1
290
     1
176
     1
290
     1
176
     1
290
     0
176
     1
290
     0
176
     1
290
     0
176
     1
290
     0
176
     1
290
     0
176
     1
290
     0
176
     1
 90
       50
176
     1
 40
0.0
176
     1
 40
1.0
176
     1
 90
        0
176
     1
 62
    18
420
        0
176
     1
 90
       50
176
     1
 90
        3
176
     1
 62
     5
420
      255
176
     1
290
     0
176
     1
 90
       50
176
     1
 90
       50
176
     1
 90
       50
176
     1
290
     0
176
     1
 90
       50
176
     1
 62
   256
176
     0
 40
1.0
176
     0
 90
        2
176
     1
  1
strokes_ogs.tif
176
     1
290
     0
176
     1
 40
1.0
176
     1
 40
1.0
176
     1
  0
VISUALSTYLE
  5
2E
102
{ACAD_REACTORS
330
2A
102
}
330
2A
100
AcDbVisualStyle
  2
GouraudWithEdges
 70
     3
177
     3
291
     1
 70
    58
 90
        2
176
     1
 90
        2
176
     1
 90
        1
176
     1
 90
        2
176
     1
 40
0.6
176
     1
 40
30.0
176
     1
 62
     7
420
 16777215
176
     1
 90
        1
176
     1
 90
        0
176
     1
 62
     7
176
     1
 62
   257
176
     1
 90
        1
176
     1
 90
        1
176
     1
 40
1.0
176
     1
 90
        0
176
     1
 62
   257
176
     1
 40
1.0
176
     1
 90
        1
176
     1
 90
        6
176
     1
 90
        2
176
     1
 62
     7
176
     1
 90
        5
176
     1
 90
        0
176
     1
 90
        0
176
     1
290
     0
176
     1
 90
       13
176
     1
 40
0.0
176
     1
 90
        0
176
     1
290
     0
176
     1
290
     1
176
     1
290
     1
176
     1
290
     0
176
     1
290
     0
176
     1
290
     0
176
     1
290
     0
176
     1
290
     0
176
     1
290
     0
176
     1
 90
       50
176
     1
 40
0.0
176
     1
 40
1.0
176
     1
 90
        0
176
     1
 62
    18
420
        0
176
     1
 90
       50
176
     1
 90
        3
176
     1
 62
     5
420
      255
176
     1
290
     0
176
     1
 90
       50
176
     1
 90
       50
176
     1
 90
       50
176
     1
290
     0
176
     1
 90
       50
176
     1
 62
   256
176
     0
 40
1.0
176
     0
 90
        2
176
     1
  1
strokes_ogs.tif
176
     1
290
     0
176
     1
 40
1.0
176
     1
 40
1.0
176
     1
  0
VISUALSTYLE
  5
31
102
{ACAD_REACTORS
330
2A
102
}
330
2A
100
AcDbVisualStyle
  2
Hidden
 70
     6
177
     3
291
     0
 70
    58
 90
        1
176
     1
 90
        2
176
     1
 90
        2
176
     1
 90
        0
176
     1
 40
0.6
176
     1
 40
30.0
176
     1
 62
     7
420
 16777215
176
     1
 90
        2
176
     1
 90
        2
176
     1
 62
     7
176
     1
 62
   257
176
     1
 90
        2
176
     1
 90
        1
176
     1
 40
40.0
176
     1
 90
        0
176
     1
 62
   257
176
     1
 40
1.0
176
     1
 90
        1
176
     1
 90
        6
176
     1
 90
        2
176
     1
 62
     7
176
     1
 90
        3
176
     1
 90
        0
176
     1
 90
        0
176
     1
290
     0
176
     1
 90
        1
176
     1
 40
0.0
176
     1
 90
        0
176
     1
290
     0
176
     1
290
     1
176
     1
290
     1
176
     1
290
     0
176
     1
290
     0
176
     1
290
     0
176
     1
290
     0
176
     1
290
     0
176
     1
290
     0
176
     1
 90
       50
176
     1
 40
0.0
176
     1
 40
1.0
176
     1
 90
        0
176
     1
 62
    18
420
        0
176
     1
 90
       50
176
     1
 90
        3
176
     1
 62
     5
420
      255
176
     1
290
     0
176
     1
 90
       50
176
     1
 90
       50
176
     1
 90
       50
176
     1
290
     0
176
     1
 90
       50
176
     1
 62
   256
176
     0
 40
1.0
176
     0
 90
        2
176
     1
  1
strokes_ogs.tif
176
     1
290
     0
176
     1
 40
1.0
176
     1
 40
1.0
176
     1
  0
VISUALSTYLE
  5
3B
102
{ACAD_REACTORS
330
2A
102
}
330
2A
100
AcDbVisualStyle
  2
JitterOff
 70
    20
177
     3
291
     1
 70
    58
 90
        2
176
     0
 90
        2
176
     0
 90
        0
176
     0
 90
        0
176
     0
 40
0.6
176
     0
 40
30.0
176
     0
 62
     7
420
 16777215
176
     0
 90
        1
176
     0
 90
        4
176
     0
 62
     7
176
     0
 62
   257
176
     0
 90
        1
176
     0
 90
        1
176
     0
 40
1.0
176
     0
 90
       10
176
     2
 62
     7
176
     0
 40
1.0
176
     0
 90
        1
176
     0
 90
        6
176
     0
 90
        2
176
     0
 62
     7
176
     0
 90
        5
176
     0
 90
        0
176
     0
 90
        0
176
     0
290
     0
176
     0
 90
        1
176
     0
 40
0.0
176
     0
 90
        0
176
     0
290
     0
176
     0
290
     1
176
     0
290
     1
176
     0
290
     0
176
     0
290
     0
176
     0
290
     0
176
     0
290
     0
176
     0
290
     0
176
     0
290
     0
176
     0
 90
       50
176
     0
 40
0.0
176
     0
 40
1.0
176
     0
 90
        0
176
     0
 62
    18
420
        0
176
     0
 90
       50
176
     0
 90
        3
176
     0
 62
     5
420
      255
176
     0
290
     0
176
     0
 90
       50
176
     0
 90
       50
176
     0
 90
       50
176
     0
290
     0
176
     0
 90
       50
176
     0
 62
   256
176
     0
 40
1.0
176
     0
 90
        2
176
     0
  1
strokes_ogs.tif
176
     0
290
     0
176
     0
 40
1.0
176
     0
 40
1.0
176
     0
  0
VISUALSTYLE
  5
38
102
{ACAD_REACTORS
330
2A
102
}
330
2A
100
AcDbVisualStyle
  2
Linepattern
 70
    14
177
     3
291
     1
 70
    58
 90
        2
176
     1
 90
        2
176
     1
 90
        0
176
     1
 90
        0
176
     1
 40
0.6
176
     1
 40
30.0
176
     1
 62
     7
420
 16777215
176
     1
 90
        1
176
     1
 90
        4
176
     1
 62
     7
176
     1
 62
   257
176
     1
 90
        7
176
     1
 90
        7
176
     1
 40
1.0
176
     1
 90
        8
176
     1
 62
     7
176
     1
 40
1.0
176
     1
 90
        1
176
     1
 90
        6
176
     1
 90
        2
176
     1
 62
     7
176
     1
 90
        5
176
     1
 90
        0
176
     1
 90
        0
176
     1
290
     0
176
     1
 90
        1
176
     1
 40
0.0
176
     1
 90
        0
176
     1
290
     0
176
     1
290
     1
176
     1
290
     1
176
     1
290
     0
176
     1
290
     0
176
     1
290
     0
176
     1
290
     0
176
     1
290
     0
176
     1
290
     0
176
     1
 90
       50
176
     1
 40
0.0
176
     1
 40
1.0
176
     1
 90
        0
176
     1
 62
    18
420
        0
176
     1
 90
       50
176
     1
 90
        3
176
     1
 62
     5
420
      255
176
     1
290
     0
176
     1
 90
       50
176
     1
 90
       50
176
     1
 90
       50
176
     1
290
     0
176
     1
 90
       50
176
     1
 62
   256
176
     0
 40
1.0
176
     0
 90
        2
176
     1
  1
strokes_ogs.tif
176
     1
290
     0
176
     1
 40
1.0
176
     1
 40
1.0
176
     1
  0
VISUALSTYLE
  5
3C
102
{ACAD_REACTORS
330
2A
102
}
330
2A
100
AcDbVisualStyle
  2
OverhangOff
 70
    21
177
     3
291
     1
 70
    58
 90
        2
176
     0
 90
        2
176
     0
 90
        0
176
     0
 90
        0
176
     0
 40
0.6
176
     0
 40
30.0
176
     0
 62
     7
420
 16777215
176
     0
 90
        1
176
     0
 90
        4
176
     0
 62
     7
176
     0
 62
   257
176
     0
 90
        1
176
     0
 90
        1
176
     0
 40
1.0
176
     0
 90
        9
176
     2
 62
     7
176
     0
 40
1.0
176
     0
 90
        1
176
     0
 90
        6
176
     0
 90
        2
176
     0
 62
     7
176
     0
 90
        5
176
     0
 90
        0
176
     0
 90
        0
176
     0
290
     0
176
     0
 90
        1
176
     0
 40
0.0
176
     0
 90
        0
176
     0
290
     0
176
     0
290
     1
176
     0
290
     1
176
     0
290
     0
176
     0
290
     0
176
     0
290
     0
176
     0
290
     0
176
     0
290
     0
176
     0
290
     0
176
     0
 90
       50
176
     0
 40
0.0
176
     0
 40
1.0
176
     0
 90
        0
176
     0
 62
    18
420
        0
176
     0
 90
       50
176
     0
 90
        3
176
     0
 62
     5
420
      255
176
     0
290
     0
176
     0
 90
       50
176
     0
 90
       50
176
     0
 90
       50
176
     0
290
     0
176
     0
 90
       50
176
     0
 62
   256
176
     0
 40
1.0
176
     0
 90
        2
176
     0
  1
strokes_ogs.tif
176
     0
290
     0
176
     0
 40
1.0
176
     0
 40
1.0
176
     0
  0
VISUALSTYLE
  5
33
102
{ACAD_REACTORS
330
2A
102
}
330
2A
100
AcDbVisualStyle
  2
Realistic
 70
     8
177
     3
291
     0
 70
    58
 90
        2
176
     1
 90
        3
176
     1
 90
        0
176
     1
 90
        2
176
     1
 40
0.6
176
     1
 40
30.0
176
     1
 62
     7
420
 16777215
176
     1
 90
        0
176
     1
 90
        0
176
     1
 62
     7
176
     1
 62
   257
176
     1
 90
        1
176
     1
 90
        1
176
     1
 40
1.0
176
     1
 90
        8
176
     1
 62
   257
176
     1
 40
1.0
176
     1
 90
        1
176
     1
 90
        6
176
     1
 90
        2
176
     1
 62
     7
176
     1
 90
        3
176
     1
 90
        0
176
     1
 90
        0
176
     1
290
     0
176
     1
 90
       13
176
     1
 40
0.0
176
     1
 90
        0
176
     1
290
     0
176
     1
290
     1
176
     1
290
     1
176
     1
290
     0
176
     1
290
     0
176
     1
290
     0
176
     1
290
     0
176
     1
290
     0
176
     1
290
     0
176
     1
 90
       50
176
     1
 40
0.0
176
     1
 40
1.0
176
     1
 90
        0
176
     1
 62
    18
420
        0
176
     1
 90
       50
176
     1
 90
        3
176
     1
 62
     5
420
      255
176
     1
290
     0
176
     1
 90
       50
176
     1
 90
       50
176
     1
 90
       50
176
     1
290
     0
176
     1
 90
       50
176
     1
 62
   256
176
     0
 40
1.0
176
     0
 90
        2
176
     1
  1
strokes_ogs.tif
176
     1
290
     0
176
     1
 40
1.0
176
     1
 40
1.0
176
     1
  0
VISUALSTYLE
  5
42
102
{ACAD_REACTORS
330
2A
102
}
330
2A
100
AcDbVisualStyle
  2
Shaded
 70
    27
177
     3
291
     0
 70
    58
 90
        2
176
     1
 90
        2
176
     1
 90
        1
176
     1
 90
        2
176
     1
 40
0.6
176
     1
 40
30.0
176
     1
 62
     7
420
 16777215
176
     1
 90
        0
176
     1
 90
        4
176
     1
 62
     7
176
     1
 62
   257
176
     1
 90
        1
176
     1
 90
        1
176
     1
 40
1.0
176
     1
 90
        8
176
     1
 62
   257
176
     1
 40
1.0
176
     1
 90
        1
176
     1
 90
        6
176
     1
 90
        2
176
     1
 62
     8
420
  7895160
176
     1
 90
        3
176
     1
 90
        0
176
     1
 90
        0
176
     1
290
     0
176
     1
 90
        5
176
     1
 40
0.0
176
     1
 90
        0
176
     1
290
     0
176
     1
290
     1
176
     1
290
     1
176
     1
290
     0
176
     1
290
     0
176
     1
290
     0
176
     1
290
     0
176
     1
290
     0
176
     1
290
     0
176
     1
 90
       50
176
     1
 40
0.0
176
     1
 40
1.0
176
     1
 90
        0
176
     1
 62
    18
420
        0
176
     1
 90
       50
176
     1
 90
        3
176
     1
 62
     5
420
      255
176
     1
290
     0
176
     1
 90
       50
176
     1
 90
       50
176
     1
 90
       50
176
     1
290
     0
176
     1
 90
       50
176
     1
 62
   256
176
     0
 40
1.0
176
     0
 90
        2
176
     1
  1
strokes_ogs.tif
176
     1
290
     0
176
     1
 40
1.0
176
     1
 40
1.0
176
     1
  0
VISUALSTYLE
  5
41
102
{ACAD_REACTORS
330
2A
102
}
330
2A
100
AcDbVisualStyle
  2
Shaded with edges
 70
    26
177
     3
291
     0
 70
    58
 90
        2
176
     1
 90
        2
176
     1
 90
        1
176
     1
 90
        2
176
     1
 40
0.6
176
     1
 40
30.0
176
     1
 62
     7
420
 16777215
176
     1
 90
        1
176
     1
 90
       10
176
     1
 62
     7
176
     1
 62
   257
176
     1
 90
        2
176
     1
 90
        1
176
     1
 40
1.0
176
     1
 90
        8
176
     1
 62
   257
176
     1
 40
1.0
176
     1
 90
        1
176
     1
 90
        6
176
     1
 90
        2
176
     1
 62
     7
176
     1
 90
        3
176
     1
 90
        0
176
     1
 90
        0
176
     1
290
     0
176
     1
 90
        5
176
     1
 40
0.0
176
     1
 90
        0
176
     1
290
     0
176
     1
290
     1
176
     1
290
     1
176
     1
290
     0
176
     1
290
     0
176
     1
290
     0
176
     1
290
     0
176
     1
290
     0
176
     1
290
     0
176
     1
 90
       50
176
     1
 40
0.0
176
     1
 40
1.0
176
     1
 90
        0
176
     1
 62
    18
420
        0
176
     1
 90
       50
176
     1
 90
        3
176
     1
 62
     5
420
      255
176
     1
290
     0
176
     1
 90
       50
176
     1
 90
       50
176
     1
 90
       50
176
     1
290
     0
176
     1
 90
       50
176
     1
 62
   256
176
     0
 40
1.0
176
     0
 90
        2
176
     1
  1
strokes_ogs.tif
176
     1
290
     0
176
     1
 40
1.0
176
     1
 40
1.0
176
     1
  0
VISUALSTYLE
  5
3E
102
{ACAD_REACTORS
330
2A
102
}
330
2A
100
AcDbVisualStyle
  2
Shades of Gray
 70
    23
177
     3
291
     0
 70
    58
 90
        2
176
     1
 90
        2
176
     1
 90
        3
176
     1
 90
        0
176
     1
 40
0.6
176
     1
 40
30.0
176
     1
 62
     7
420
 16777215
176
     1
 90
        2
176
     1
 90
        2
176
     1
 62
     7
176
     1
 62
     7
176
     1
 90
        1
176
     1
 90
        1
176
     1
 40
40.0
176
     1
 90
        8
176
     1
 62
     7
176
     1
 40
1.0
176
     1
 90
        1
176
     1
 90
        6
176
     1
 90
        2
176
     1
 62
     7
176
     1
 90
        3
176
     1
 90
        0
176
     1
 90
        0
176
     1
290
     0
176
     1
 90
        1
176
     1
 40
0.0
176
     1
 90
        0
176
     1
290
     0
176
     1
290
     1
176
     1
290
     1
176
     1
290
     0
176
     1
290
     0
176
     1
290
     0
176
     1
290
     0
176
     1
290
     0
176
     1
290
     0
176
     1
 90
       50
176
     1
 40
0.0
176
     1
 40
1.0
176
     1
 90
        0
176
     1
 62
    18
420
        0
176
     1
 90
       50
176
     1
 90
        3
176
     1
 62
     5
420
      255
176
     1
290
     0
176
     1
 90
       50
176
     1
 90
       50
176
     1
 90
       50
176
     1
290
     0
176
     1
 90
       50
176
     1
 62
   256
176
     0
 40
1.0
176
     0
 90
        2
176
     1
  1
strokes_ogs.tif
176
     1
290
     0
176
     1
 40
1.0
176
     1
 40
1.0
176
     1
  0
VISUALSTYLE
  5
3F
102
{ACAD_REACTORS
330
2A
102
}
330
2A
100
AcDbVisualStyle
  2
Sketchy
 70
    24
177
     3
291
     0
 70
    58
 90
        1
176
     1
 90
        2
176
     1
 90
        2
176
     1
 90
        0
176
     1
 40
0.6
176
     1
 40
30.0
176
     1
 62
     7
420
 16777215
176
     1
 90
        2
176
     1
 90
        2
176
     1
 62
     7
176
     1
 62
     7
176
     1
 90
        1
176
     1
 90
        1
176
     1
 40
40.0
176
     1
 90
       11
176
     1
 62
     7
176
     1
 40
1.0
176
     1
 90
        1
176
     1
 90
        6
176
     1
 90
        2
176
     1
 62
     7
176
     1
 90
        6
176
     1
 90
        0
176
     1
 90
        0
176
     1
290
     0
176
     1
 90
        1
176
     1
 40
0.0
176
     1
 90
        0
176
     1
290
     0
176
     1
290
     1
176
     1
290
     1
176
     1
290
     0
176
     1
290
     0
176
     1
290
     0
176
     1
290
     0
176
     1
290
     0
176
     1
290
     0
176
     1
 90
       50
176
     1
 40
0.0
176
     1
 40
1.0
176
     1
 90
        0
176
     1
 62
    18
420
        0
176
     1
 90
       50
176
     1
 90
        3
176
     1
 62
     5
420
      255
176
     1
290
     0
176
     1
 90
       50
176
     1
 90
       50
176
     1
 90
       50
176
     1
290
     0
176
     1
 90
       50
176
     1
 62
   256
176
     0
 40
1.0
176
     0
 90
        2
176
     1
  1
strokes_ogs.tif
176
     1
290
     0
176
     1
 40
1.0
176
     1
 40
1.0
176
     1
  0
VISUALSTYLE
  5
37
102
{ACAD_REACTORS
330
2A
102
}
330
2A
100
AcDbVisualStyle
  2
Thicken
 70
    13
177
     3
291
     1
 70
    58
 90
        2
176
     1
 90
        2
176
     1
 90
        0
176
     1
 90
        0
176
     1
 40
0.6
176
     1
 40
30.0
176
     1
 62
     7
420
 16777215
176
     1
 90
        1
176
     1
 90
        4
176
     1
 62
     7
176
     1
 62
   257
176
     1
 90
        1
176
     1
 90
        1
176
     1
 40
1.0
176
     1
 90
       12
176
     1
 62
     7
176
     1
 40
1.0
176
     1
 90
        1
176
     1
 90
        6
176
     1
 90
        2
176
     1
 62
     7
176
     1
 90
        5
176
     1
 90
        0
176
     1
 90
        0
176
     1
290
     0
176
     1
 90
        1
176
     1
 40
0.0
176
     1
 90
        0
176
     1
290
     0
176
     1
290
     1
176
     1
290
     1
176
     1
290
     0
176
     1
290
     0
176
     1
290
     0
176
     1
290
     0
176
     1
290
     0
176
     1
290
     0
176
     1
 90
       50
176
     1
 40
0.0
176
     1
 40
1.0
176
     1
 90
        0
176
     1
 62
    18
420
        0
176
     1
 90
       50
176
     1
 90
        3
176
     1
 62
     5
420
      255
176
     1
290
     0
176
     1
 90
       50
176
     1
 90
       50
176
     1
 90
       50
176
     1
290
     0
176
     1
 90
       50
176
     1
 62
   256
176
     0
 40
1.0
176
     0
 90
        2
176
     1
  1
strokes_ogs.tif
176
     1
290
     0
176
     1
 40
1.0
176
     1
 40
1.0
176
     1
  0
VISUALSTYLE
  5
30
102
{ACAD_REACTORS
330
2A
102
}
330
2A
100
AcDbVisualStyle
  2
Wireframe
 70
     5
177
     3
291
     0
 70
    58
 90
        0
176
     1
 90
        2
176
     1
 90
        0
176
     1
 90
        0
176
     1
 40
0.6
176
     1
 40
30.0
176
     1
 62
     7
420
 16777215
176
     1
 90
        1
176
     1
 90
        4
176
     1
 62
     7
176
     1
 62
   257
176
     1
 90
        1
176
     1
 90
        1
176
     1
 40
1.0
176
     1
 90
        0
176
     1
 62
   257
176
     1
 40
1.0
176
     1
 90
        1
176
     1
 90
        6
176
     1
 90
        2
176
     1
 62
     7
176
     1
 90
        3
176
     1
 90
        0
176
     1
 90
        0
176
     1
290
     0
176
     1
 90
        1
176
     1
 40
0.0
176
     1
 90
        0
176
     1
290
     0
176
     1
290
     1
176
     1
290
     1
176
     1
290
     0
176
     1
290
     0
176
     1
290
     0
176
     1
290
     0
176
     1
290
     0
176
     1
290
     0
176
     1
 90
       50
176
     1
 40
0.0
176
     1
 40
1.0
176
     1
 90
        0
176
     1
 62
    18
420
        0
176
     1
 90
       50
176
     1
 90
        3
176
     1
 62
     5
420
      255
176
     1
290
     0
176
     1
 90
       50
176
     1
 90
       50
176
     1
 90
       50
176
     1
290
     0
176
     1
 90
       50
176
     1
 62
   256
176
     0
 40
1.0
176
     0
 90
        2
176
     1
  1
strokes_ogs.tif
176
     1
290
     0
176
     1
 40
1.0
176
     1
 40
1.0
176
     1
  0
VISUALSTYLE
  5
40
102
{ACAD_REACTORS
330
2A
102
}
330
2A
100
AcDbVisualStyle
  2
X-Ray
 70
    25
177
     3
291
     0
 70
    58
 90
        2
176
     1
 90
        2
176
     1
 90
        1
176
     1
 90
        1
176
     1
 40
0.5
176
     1
 40
30.0
176
     1
 62
     7
420
 16777215
176
     1
 90
        1
176
     1
 90
        0
176
     1
 62
     7
176
     1
 62
   257
176
     1
 90
        1
176
     1
 90
        1
176
     1
 40
1.0
176
     1
 90
        8
176
     1
 62
     7
176
     1
 40
1.0
176
     1
 90
        1
176
     1
 90
        6
176
     1
 90
        2
176
     1
 62
     7
176
     1
 90
        3
176
     1
 90
        0
176
     1
 90
        0
176
     1
290
     0
176
     1
 90
       13
176
     1
 40
0.0
176
     1
 90
        0
176
     1
290
     0
176
     1
290
     1
176
     1
290
     1
176
     1
290
     0
176
     1
290
     0
176
     1
290
     0
176
     1
290
     0
176
     1
290
     0
176
     1
290
     0
176
     1
 90
       50
176
     1
 40
0.0
176
     1
 40
1.0
176
     1
 90
        0
176
     1
 62
    18
420
        0
176
     1
 90
       50
176
     1
 90
        3
176
     1
 62
     5
420
      255
176
     1
290
     0
176
     1
 90
       50
176
     1
 90
       50
176
     1
 90
       50
176
     1
290
     0
176
     1
 90
       50
176
     1
 62
   256
176
     0
 40
1.0
176
     0
 90
        2
176
     1
  1
strokes_ogs.tif
176
     1
290
     0
176
     1
 40
1.0
176
     1
 40
1.0
176
     1
  0
DICTIONARYVAR
  5
9D
102
{ACAD_REACTORS
330
9C
102
}
330
9C
100
DictionaryVariables
280
     0
  1
1:1
  0
DICTIONARYVAR
  5
A5
102
{ACAD_REACTORS
330
9C
102
}
330
9C
100
DictionaryVariables
280
     0
  1
3.500000
  0
DICTIONARYVAR
  5
A6
102
{ACAD_REACTORS
330
9C
102
}
330
9C
100
DictionaryVariables
280
     0
  1
acadiso.lin
  0
DICTIONARYVAR
  5
A2
102
{ACAD_REACTORS
330
9C
102
}
330
9C
100
DictionaryVariables
280
     0
  1
Standard
  0
DICTIONARYVAR
  5
A1
102
{ACAD_REACTORS
330
9C
102
}
330
9C
100
DictionaryVariables
280
     0
  1
Standard
  0
DICTIONARY
  5
9E
330
5A
100
AcDbDictionary
280
     1
281
     1
  3
ACAD_ROUNDTRIP_2008_TABLESTYLE_CELLSTYLEMAP
360
9F
  0
CELLSTYLEMAP
  5
9F
102
{ACAD_REACTORS
330
9E
102
}
330
9E
100
AcDbCellStyleMap
 90
        3
300
CELLSTYLE
  1
TABLEFORMAT_BEGIN
 90
        5
170
     1
 91
        0
 92
    32768
 62
   257
 93
        1
300
CONTENTFORMAT
  1
CONTENTFORMAT_BEGIN
 90
        0
 91
        0
 92
        4
 93
        0
300

 40
0.0
140
1.0
 94
        5
 62
     0
340
11
144
6.0
309
CONTENTFORMAT_END
171
     1
301
MARGIN
  1
CELLMARGIN_BEGIN
 40
1.5
 40
1.5
 40
1.5
 40
1.5
 40
1.5
 40
1.5
309
CELLMARGIN_END
 94
        6
 95
        1
302
GRIDFORMAT
  1
GRIDFORMAT_BEGIN
 90
        0
 91
        1
 62
     0
 92
       -2
340
14
 93
        0
 40
0.045
309
GRIDFORMAT_END
 95
        2
302
GRIDFORMAT
  1
GRIDFORMAT_BEGIN
 90
        0
 91
        1
 62
     0
 92
       -2
340
14
 93
        0
 40
0.045
309
GRIDFORMAT_END
 95
        4
302
GRIDFORMAT
  1
GRIDFORMAT_BEGIN
 90
        0
 91
        1
 62
     0
 92
       -2
340
14
 93
        0
 40
0.045
309
GRIDFORMAT_END
 95
        8
302
GRIDFORMAT
  1
GRIDFORMAT_BEGIN
 90
        0
 91
        1
 62
     0
 92
       -2
340
14
 93
        0
 40
0.045
309
GRIDFORMAT_END
 95
       16
302
GRIDFORMAT
  1
GRIDFORMAT_BEGIN
 90
        0
 91
        1
 62
     0
 92
       -2
340
14
 93
        0
 40
0.045
309
GRIDFORMAT_END
 95
       32
302
GRIDFORMAT
  1
GRIDFORMAT_BEGIN
 90
        0
 91
        1
 62
     0
 92
       -2
340
14
 93
        0
 40
0.045
309
GRIDFORMAT_END
309
TABLEFORMAT_END
  1
CELLSTYLE_BEGIN
 90
        1
 91
        1
300
_TITLE
309
CELLSTYLE_END
300
CELLSTYLE
  1
TABLEFORMAT_BEGIN
 90
        5
170
     1
 91
        0
 92
        0
 62
   257
 93
        1
300
CONTENTFORMAT
  1
CONTENTFORMAT_BEGIN
 90
        0
 91
        0
 92
        4
 93
        0
300

 40
0.0
140
1.0
 94
        5
 62
     0
340
11
144
4.5
309
CONTENTFORMAT_END
171
     1
301
MARGIN
  1
CELLMARGIN_BEGIN
 40
1.5
 40
1.5
 40
1.5
 40
1.5
 40
1.5
 40
1.5
309
CELLMARGIN_END
 94
        6
 95
        1
302
GRIDFORMAT
  1
GRIDFORMAT_BEGIN
 90
        0
 91
        1
 62
     0
 92
       -2
340
14
 93
        0
 40
0.045
309
GRIDFORMAT_END
 95
        2
302
GRIDFORMAT
  1
GRIDFORMAT_BEGIN
 90
        0
 91
        1
 62
     0
 92
       -2
340
14
 93
        0
 40
0.045
309
GRIDFORMAT_END
 95
        4
302
GRIDFORMAT
  1
GRIDFORMAT_BEGIN
 90
        0
 91
        1
 62
     0
 92
       -2
340
14
 93
        0
 40
0.045
309
GRIDFORMAT_END
 95
        8
302
GRIDFORMAT
  1
GRIDFORMAT_BEGIN
 90
        0
 91
        1
 62
     0
 92
       -2
340
14
 93
        0
 40
0.045
309
GRIDFORMAT_END
 95
       16
302
GRIDFORMAT
  1
GRIDFORMAT_BEGIN
 90
        0
 91
        1
 62
     0
 92
       -2
340
14
 93
        0
 40
0.045
309
GRIDFORMAT_END
 95
       32
302
GRIDFORMAT
  1
GRIDFORMAT_BEGIN
 90
        0
 91
        1
 62
     0
 92
       -2
340
14
 93
        0
 40
0.045
309
GRIDFORMAT_END
309
TABLEFORMAT_END
  1
CELLSTYLE_BEGIN
 90
        2
 91
        1
300
_HEADER
309
CELLSTYLE_END
300
CELLSTYLE
  1
TABLEFORMAT_BEGIN
 90
        5
170
     1
 91
        0
 92
        0
 62
   257
 93
        1
300
CONTENTFORMAT
  1
CONTENTFORMAT_BEGIN
 90
        0
 91
        0
 92
        4
 93
        0
300

 40
0.0
140
1.0
 94
        2
 62
     0
340
11
144
4.5
309
CONTENTFORMAT_END
171
     1
301
MARGIN
  1
CELLMARGIN_BEGIN
 40
1.5
 40
1.5
 40
1.5
 40
1.5
 40
1.5
 40
1.5
309
CELLMARGIN_END
 94
        6
 95
        1
302
GRIDFORMAT
  1
GRIDFORMAT_BEGIN
 90
        0
 91
        1
 62
     0
 92
       -2
340
14
 93
        0
 40
0.045
309
GRIDFORMAT_END
 95
        2
302
GRIDFORMAT
  1
GRIDFORMAT_BEGIN
 90
        0
 91
        1
 62
     0
 92
       -2
340
14
 93
        0
 40
0.045
309
GRIDFORMAT_END
 95
        4
302
GRIDFORMAT
  1
GRIDFORMAT_BEGIN
 90
        0
 91
        1
 62
     0
 92
       -2
340
14
 93
        0
 40
0.045
309
GRIDFORMAT_END
 95
        8
302
GRIDFORMAT
  1
GRIDFORMAT_BEGIN
 90
        0
 91
        1
 62
     0
 92
       -2
340
14
 93
        0
 40
0.045
309
GRIDFORMAT_END
 95
       16
302
GRIDFORMAT
  1
GRIDFORMAT_BEGIN
 90
        0
 91
        1
 62
     0
 92
       -2
340
14
 93
        0
 40
0.045
309
GRIDFORMAT_END
 95
       32
302
GRIDFORMAT
  1
GRIDFORMAT_BEGIN
 90
        0
 91
        1
 62
     0
 92
       -2
340
14
 93
        0
 40
0.045
309
GRIDFORMAT_END
309
TABLEFORMAT_END
  1
CELLSTYLE_BEGIN
 90
        3
 91
        2
300
_DATA
309
CELLSTYLE_END
  0
ENDSEC
  0
EOF
