  0
SECTION
  2
HEADER
  9
$ACADVER
  1
AC1027
  9
$ACADMAINTVER
 70
   105
  9
$DWGCODEPAGE
  3
ANSI_932
  9
$LASTSAVEDBY
  1
a.yasuda
  9
$REQUIREDVERSIONS
160
                 0
  9
$INSBASE
 10
0.0
 20
0.0
 30
0.0
  9
$EXTMIN
 10
0.0
 20
0.0
 30
0.0
  9
$EXTMAX
 10
302.9997823349792
 20
216.0016055409748
 30
0.0
  9
$LIMMIN
 10
0.0
 20
0.0
  9
$LIMMAX
 10
302.9997823349792
 20
216.0016055409748
  9
$ORTHOMODE
 70
     0
  9
$REGENMODE
 70
     1
  9
$FILLMODE
 70
     1
  9
$QTEXTMODE
 70
     0
  9
$MIRRTEXT
 70
     1
  9
$LTSCALE
 40
1.0
  9
$ATTMODE
 70
     1
  9
$TEXTSIZE
 40
2.5
  9
$TRACEWID
 40
1.0
  9
$TEXTSTYLE
  7
Standard
  9
$CLAYER
  8
0
  9
$CELTYPE
  6
ByLayer
  9
$CECOLOR
 62
   256
  9
$CELTSCALE
 40
1.0
  9
$DISPSILH
 70
     0
  9
$DIMSCALE
 40
1.0
  9
$DIMASZ
 40
2.5
  9
$DIMEXO
 40
0.625
  9
$DIMDLI
 40
3.75
  9
$DIMRND
 40
0.0
  9
$DIMDLE
 40
0.0
  9
$DIMEXE
 40
1.25
  9
$DIMTP
 40
0.0
  9
$DIMTM
 40
0.0
  9
$DIMTXT
 40
2.5
  9
$DIMCEN
 40
2.5
  9
$DIMTSZ
 40
0.0
  9
$DIMTOL
 70
     0
  9
$DIMLIM
 70
     0
  9
$DIMTIH
 70
     0
  9
$DIMTOH
 70
     0
  9
$DIMSE1
 70
     0
  9
$DIMSE2
 70
     0
  9
$DIMTAD
 70
     1
  9
$DIMZIN
 70
     8
  9
$DIMBLK
  1

  9
$DIMASO
 70
     1
  9
$DIMSHO
 70
     1
  9
$DIMPOST
  1

  9
$DIMAPOST
  1

  9
$DIMALT
 70
     0
  9
$DIMALTD
 70
     3
  9
$DIMALTF
 40
0.03937007874016
  9
$DIMLFAC
 40
1.0
  9
$DIMTOFL
 70
     1
  9
$DIMTVP
 40
0.0
  9
$DIMTIX
 70
     0
  9
$DIMSOXD
 70
     0
  9
$DIMSAH
 70
     0
  9
$DIMBLK1
  1

  9
$DIMBLK2
  1

  9
$DIMSTYLE
  2
ISO-25
  9
$DIMCLRD
 70
     0
  9
$DIMCLRE
 70
     0
  9
$DIMCLRT
 70
     0
  9
$DIMTFAC
 40
1.0
  9
$DIMGAP
 40
0.625
  9
$DIMJUST
 70
     0
  9
$DIMSD1
 70
     0
  9
$DIMSD2
 70
     0
  9
$DIMTOLJ
 70
     0
  9
$DIMTZIN
 70
     8
  9
$DIMALTZ
 70
     0
  9
$DIMALTTZ
 70
     0
  9
$DIMUPT
 70
     0
  9
$DIMDEC
 70
     2
  9
$DIMTDEC
 70
     2
  9
$DIMALTU
 70
     2
  9
$DIMALTTD
 70
     3
  9
$DIMTXSTY
  7
Standard
  9
$DIMAUNIT
 70
     0
  9
$DIMADEC
 70
     0
  9
$DIMALTRND
 40
0.0
  9
$DIMAZIN
 70
     0
  9
$DIMDSEP
 70
    44
  9
$DIMATFIT
 70
     3
  9
$DIMFRAC
 70
     0
  9
$DIMLDRBLK
  1

  9
$DIMLUNIT
 70
     2
  9
$DIMLWD
 70
    -2
  9
$DIMLWE
 70
    -2
  9
$DIMTMOVE
 70
     0
  9
$DIMFXL
 40
1.0
  9
$DIMFXLON
 70
     0
  9
$DIMJOGANG
 40
0.7853981633974483
  9
$DIMTFILL
 70
     0
  9
$DIMTFILLCLR
 70
     0
  9
$DIMARCSYM
 70
     0
  9
$DIMLTYPE
  6

  9
$DIMLTEX1
  6

  9
$DIMLTEX2
  6

  9
$DIMTXTDIRECTION
 70
     0
  9
$LUNITS
 70
     2
  9
$LUPREC
 70
     4
  9
$SKETCHINC
 40
1.0
  9
$FILLETRAD
 40
0.0
  9
$AUNITS
 70
     0
  9
$AUPREC
 70
     0
  9
$MENU
  1
.
  9
$ELEVATION
 40
0.0
  9
$PELEVATION
 40
0.0
  9
$THICKNESS
 40
0.0
  9
$LIMCHECK
 70
     0
  9
$CHAMFERA
 40
0.0
  9
$CHAMFERB
 40
0.0
  9
$CHAMFERC
 40
0.0
  9
$CHAMFERD
 40
0.0
  9
$SKPOLY
 70
     0
  9
$TDCREATE
 40
2459866.618880613
  9
$TDUCREATE
 40
2459866.243880613
  9
$TDUPDATE
 40
2459866.61888066
  9
$TDUUPDATE
 40
2459866.24388066
  9
$TDINDWG
 40
0.0000000116
  9
$TDUSRTIMER
 40
0.0000000116
  9
$USRTIMER
 70
     1
  9
$ANGBASE
 50
0.0
  9
$ANGDIR
 70
     0
  9
$PDMODE
 70
     0
  9
$PDSIZE
 40
0.0
  9
$PLINEWID
 40
0.0
  9
$SPLFRAME
 70
     0
  9
$SPLINETYPE
 70
     6
  9
$SPLINESEGS
 70
     8
  9
$HANDSEED
  5
AA
  9
$SURFTAB1
 70
     6
  9
$SURFTAB2
 70
     6
  9
$SURFTYPE
 70
     6
  9
$SURFU
 70
     6
  9
$SURFV
 70
     6
  9
$UCSBASE
  2

  9
$UCSNAME
  2

  9
$UCSORG
 10
0.0
 20
0.0
 30
0.0
  9
$UCSXDIR
 10
1.0
 20
0.0
 30
0.0
  9
$UCSYDIR
 10
0.0
 20
1.0
 30
0.0
  9
$UCSORTHOREF
  2

  9
$UCSORTHOVIEW
 70
     0
  9
$UCSORGTOP
 10
0.0
 20
0.0
 30
0.0
  9
$UCSORGBOTTOM
 10
0.0
 20
0.0
 30
0.0
  9
$UCSORGLEFT
 10
0.0
 20
0.0
 30
0.0
  9
$UCSORGRIGHT
 10
0.0
 20
0.0
 30
0.0
  9
$UCSORGFRONT
 10
0.0
 20
0.0
 30
0.0
  9
$UCSORGBACK
 10
0.0
 20
0.0
 30
0.0
  9
$PUCSBASE
  2

  9
$PUCSNAME
  2

  9
$PUCSORG
 10
0.0
 20
0.0
 30
0.0
  9
$PUCSXDIR
 10
1.0
 20
0.0
 30
0.0
  9
$PUCSYDIR
 10
0.0
 20
1.0
 30
0.0
  9
$PUCSORTHOREF
  2

  9
$PUCSORTHOVIEW
 70
     0
  9
$PUCSORGTOP
 10
0.0
 20
0.0
 30
0.0
  9
$PUCSORGBOTTOM
 10
0.0
 20
0.0
 30
0.0
  9
$PUCSORGLEFT
 10
0.0
 20
0.0
 30
0.0
  9
$PUCSORGRIGHT
 10
0.0
 20
0.0
 30
0.0
  9
$PUCSORGFRONT
 10
0.0
 20
0.0
 30
0.0
  9
$PUCSORGBACK
 10
0.0
 20
0.0
 30
0.0
  9
$USERI1
 70
     0
  9
$USERI2
 70
     0
  9
$USERI3
 70
     0
  9
$USERI4
 70
     0
  9
$USERI5
 70
     0
  9
$USERR1
 40
0.0
  9
$USERR2
 40
0.0
  9
$USERR3
 40
0.0
  9
$USERR4
 40
0.0
  9
$USERR5
 40
0.0
  9
$WORLDVIEW
 70
     1
  9
$SHADEDGE
 70
     3
  9
$SHADEDIF
 70
    70
  9
$TILEMODE
 70
     1
  9
$MAXACTVP
 70
    64
  9
$PINSBASE
 10
0.0
 20
0.0
 30
0.0
  9
$PLIMCHECK
 70
     0
  9
$PEXTMIN
 10
1.000000000000000E+20
 20
1.000000000000000E+20
 30
1.000000000000000E+20
  9
$PEXTMAX
 10
-1.000000000000000E+20
 20
-1.000000000000000E+20
 30
-1.000000000000000E+20
  9
$PLIMMIN
 10
0.0
 20
0.0
  9
$PLIMMAX
 10
420.0
 20
297.0
  9
$UNITMODE
 70
     0
  9
$VISRETAIN
 70
     1
  9
$PLINEGEN
 70
     0
  9
$PSLTSCALE
 70
     1
  9
$TREEDEPTH
 70
  3020
  9
$CMLSTYLE
  2
Standard
  9
$CMLJUST
 70
     0
  9
$CMLSCALE
 40
20.0
  9
$PROXYGRAPHICS
 70
     1
  9
$MEASUREMENT
 70
     1
  9
$CELWEIGHT
370
    -1
  9
$ENDCAPS
280
     0
  9
$JOINSTYLE
280
     0
  9
$LWDISPLAY
290
     0
  9
$INSUNITS
 70
     4
  9
$HYPERLINKBASE
  1

  9
$STYLESHEET
  1

  9
$XEDIT
290
     1
  9
$CEPSNTYPE
380
     0
  9
$PSTYLEMODE
290
     1
  9
$FINGERPRINTGUID
  2
{912be211-7b23-4abc-b710-c7919b40a01b}
  9
$VERSIONGUID
  2
{FAEB1C32-E019-11D5-929B-00C0DF256EC4}
  9
$EXTNAMES
290
     1
  9
$PSVPSCALE
 40
0.0
  9
$OLESTARTUP
290
     0
  9
$SORTENTS
280
   127
  9
$INDEXCTL
280
     0
  9
$HIDETEXT
280
     1
  9
$XCLIPFRAME
280
     2
  9
$HALOGAP
280
     0
  9
$OBSCOLOR
 70
   257
  9
$OBSLTYPE
280
     0
  9
$INTERSECTIONDISPLAY
280
     0
  9
$INTERSECTIONCOLOR
 70
   257
  9
$DIMASSOC
280
     2
  9
$PROJECTNAME
  1

  9
$CAMERADISPLAY
290
     0
  9
$LENSLENGTH
 40
50.0
  9
$CAMERAHEIGHT
 40
0.0
  9
$STEPSPERSEC
 40
2.0
  9
$STEPSIZE
 40
6.0
  9
$3DDWFPREC
 40
2.0
  9
$PSOLWIDTH
 40
5.0
  9
$PSOLHEIGHT
 40
80.0
  9
$LOFTANG1
 40
1.570796326794897
  9
$LOFTANG2
 40
1.570796326794897
  9
$LOFTMAG1
 40
0.0
  9
$LOFTMAG2
 40
0.0
  9
$LOFTPARAM
 70
     7
  9
$LOFTNORMALS
280
     1
  9
$LATITUDE
 40
37.795
  9
$LONGITUDE
 40
-122.394
  9
$NORTHDIRECTION
 40
0.0
  9
$TIMEZONE
 70
 -8000
  9
$LIGHTGLYPHDISPLAY
280
     1
  9
$TILEMODELIGHTSYNCH
280
     1
  9
$CMATERIAL
347
44
  9
$SOLIDHIST
280
     0
  9
$SHOWHIST
280
     1
  9
$DWFFRAME
280
     2
  9
$DGNFRAME
280
     2
  9
$REALWORLDSCALE
290
     1
  9
$INTERFERECOLOR
 62
   256
  9
$CSHADOW
280
     0
  9
$SHADOWPLANELOCATION
 40
0.0
  0
ENDSEC
  0
SECTION
  2
CLASSES
  0
CLASS
  1
ACDBDICTIONARYWDFLT
  2
AcDbDictionaryWithDefault
  3
ObjectDBX Classes
 90
        0
 91
        3
280
     0
281
     0
  0
CLASS
  1
VISUALSTYLE
  2
AcDbVisualStyle
  3
ObjectDBX Classes
 90
     4095
 91
        3
280
     0
281
     0
  0
CLASS
  1
MATERIAL
  2
AcDbMaterial
  3
ObjectDBX Classes
 90
     1153
 91
        3
280
     0
281
     0
  0
CLASS
  1
SCALE
  2
AcDbScale
  3
ObjectDBX Classes
 90
     1153
 91
        3
280
     0
281
     0
  0
CLASS
  1
TABLESTYLE
  2
AcDbTableStyle
  3
ObjectDBX Classes
 90
     4095
 91
        3
280
     0
281
     0
  0
CLASS
  1
MLEADERSTYLE
  2
AcDbMLeaderStyle
  3
ACDB_MLEADERSTYLE_CLASS
 90
     4095
 91
        3
280
     0
281
     0
  0
CLASS
  1
SUN
  2
AcDbSun
  3
SCENEOE
 90
     1153
 91
        3
280
     0
281
     0
  0
CLASS
  1
DICTIONARYVAR
  2
AcDbDictionaryVar
  3
ObjectDBX Classes
 90
        0
 91
        3
280
     0
281
     0
  0
CLASS
  1
CELLSTYLEMAP
  2
AcDbCellStyleMap
  3
ObjectDBX Classes
 90
     1152
 91
        3
280
     0
281
     0
  0
ENDSEC
  0
SECTION
  2
TABLES
  0
TABLE
  2
VPORT
  5
8
330
0
100
AcDbSymbolTable
 70
     1
  0
VPORT
  5
29
330
8
100
AcDbSymbolTableRecord
100
AcDbViewportTableRecord
  2
*Active
 70
     0
 10
0.0
 20
0.0
 11
1.0
 21
1.0
 12
151.4998911674896
 22
108.0008027704874
 13
0.0
 23
0.0
 14
10.0
 24
10.0
 15
10.0
 25
10.0
 16
0.0
 26
0.0
 36
1.0
 17
0.0
 27
0.0
 37
0.0
 40
237.6017660950723
 41
1.402766343222857
 42
50.0
 43
0.0
 44
0.0
 50
0.0
 51
0.0
 71
     0
 72
 10000
 73
     1
 74
     3
 75
     0
 76
     0
 77
     0
 78
     0
281
     0
 65
     1
110
0.0
120
0.0
130
0.0
111
1.0
121
0.0
131
0.0
112
0.0
122
1.0
132
0.0
 79
     0
146
0.0
348
2F
 60
     3
 61
     5
292
     1
282
     1
141
0.0
142
0.0
 63
   250
361
5D
  0
ENDTAB
  0
TABLE
  2
LTYPE
  5
5
330
0
100
AcDbSymbolTable
 70
     2
  0
LTYPE
  5
14
330
5
100
AcDbSymbolTableRecord
100
AcDbLinetypeTableRecord
  2
ByBlock
 70
     0
  3

 72
    65
 73
     0
 40
0.0
  0
LTYPE
  5
15
330
5
100
AcDbSymbolTableRecord
100
AcDbLinetypeTableRecord
  2
ByLayer
 70
     0
  3

 72
    65
 73
     0
 40
0.0
  0
LTYPE
  5
16
330
5
100
AcDbSymbolTableRecord
100
AcDbLinetypeTableRecord
  2
Continuous
 70
     0
  3
Solid line
 72
    65
 73
     0
 40
0.0
  0
LTYPE
  5
5F
330
5
100
AcDbSymbolTableRecord
100
AcDbLinetypeTableRecord
  2
UserDefined01
 70
     0
  3
----------------                
 72
    65
 73
     2
 40
0.7055555449591743
 49
0.3527777724795871
 74
     0
 49
-0.3527777724795871
 74
     0
  0
ENDTAB
  0
TABLE
  2
LAYER
  5
2
330
0
100
AcDbSymbolTable
 70
     3
  0
LAYER
  5
10
330
2
100
AcDbSymbolTableRecord
100
AcDbLayerTableRecord
  2
0
 70
     0
 62
     7
  6
Continuous
370
    -3
390
F
347
46
348
0
  0
LAYER
  5
60
330
2
100
AcDbSymbolTableRecord
100
AcDbLayerTableRecord
  2
外枠
 70
     0
 62
     7
  6
Continuous
370
    -3
390
F
347
46
348
0
  0
LAYER
  5
61
330
2
100
AcDbSymbolTableRecord
100
AcDbLayerTableRecord
  2
ISS138金台
 70
     0
 62
     7
  6
Continuous
370
    -3
390
F
347
46
348
0
  0
ENDTAB
  0
TABLE
  2
STYLE
  5
3
330
0
100
AcDbSymbolTable
 70
     2
  0
STYLE
  5
11
330
3
100
AcDbSymbolTableRecord
100
AcDbTextStyleTableRecord
  2
Standard
 70
     0
 40
0.0
 41
1.0
 50
0.0
 71
     0
 42
2.5
  3

  4

  0
STYLE
  5
5E
330
3
100
AcDbSymbolTableRecord
100
AcDbTextStyleTableRecord
  2
MS Gothic
 70
     0
 40
1.0
 41
1.0
 50
0.0
 71
     0
 42
2.5
  3
msgothic.ttc
  4

1001
ACAD
1000
MS Gothic
1071
    32817
  0
ENDTAB
  0
TABLE
  2
VIEW
  5
6
330
0
100
AcDbSymbolTable
 70
     0
  0
ENDTAB
  0
TABLE
  2
UCS
  5
7
330
0
100
AcDbSymbolTable
 70
     0
  0
ENDTAB
  0
TABLE
  2
APPID
  5
9
330
0
100
AcDbSymbolTable
 70
     1
  0
APPID
  5
12
330
9
100
AcDbSymbolTableRecord
100
AcDbRegAppTableRecord
  2
ACAD
 70
     0
  0
ENDTAB
  0
TABLE
  2
DIMSTYLE
  5
A
330
0
100
AcDbSymbolTable
 70
     1
100
AcDbDimStyleTable
  0
DIMSTYLE
105
27
330
A
100
AcDbSymbolTableRecord
100
AcDbDimStyleTableRecord
  2
ISO-25
 70
     0
 41
2.5
 42
0.625
 43
3.75
 44
1.25
 73
     0
 74
     0
 77
     1
 78
     8
140
2.5
141
2.5
143
0.03937007874016
147
0.625
171
     3
172
     1
178
     0
271
     2
272
     2
274
     3
278
    44
283
     0
284
     8
340
11
  0
ENDTAB
  0
TABLE
  2
BLOCK_RECORD
  5
1
330
0
100
AcDbSymbolTable
 70
     1
  0
BLOCK_RECORD
  5
1F
330
1
100
AcDbSymbolTableRecord
100
AcDbBlockTableRecord
  2
*Model_Space
340
22
 70
     0
280
     1
281
     0
  0
BLOCK_RECORD
  5
1B
330
1
100
AcDbSymbolTableRecord
100
AcDbBlockTableRecord
  2
*Paper_Space
340
1E
 70
     0
280
     1
281
     0
  0
BLOCK_RECORD
  5
23
330
1
100
AcDbSymbolTableRecord
100
AcDbBlockTableRecord
  2
*Paper_Space0
340
26
 70
     0
280
     1
281
     0
  0
ENDTAB
  0
ENDSEC
  0
SECTION
  2
BLOCKS
  0
BLOCK
  5
20
330
1F
100
AcDbEntity
  8
0
100
AcDbBlockBegin
  2
*Model_Space
 70
     0
 10
0.0
 20
0.0
 30
0.0
  3
*Model_Space
  1

  0
ENDBLK
  5
21
330
1F
100
AcDbEntity
  8
0
100
AcDbBlockEnd
  0
BLOCK
  5
1C
330
1B
100
AcDbEntity
 67
     1
  8
0
100
AcDbBlockBegin
  2
*Paper_Space
 70
     0
 10
0.0
 20
0.0
 30
0.0
  3
*Paper_Space
  1

  0
ENDBLK
  5
1D
330
1B
100
AcDbEntity
 67
     1
  8
0
100
AcDbBlockEnd
  0
BLOCK
  5
24
330
23
100
AcDbEntity
  8
0
100
AcDbBlockBegin
  2
*Paper_Space0
 70
     0
 10
0.0
 20
0.0
 30
0.0
  3
*Paper_Space0
  1

  0
ENDBLK
  5
25
330
23
100
AcDbEntity
  8
0
100
AcDbBlockEnd
  0
ENDSEC
  0
SECTION
  2
ENTITIES
  0
LWPOLYLINE
  5
62
330
1F
100
AcDbEntity
  8
外枠
  6
Continuous
 62
   250
420
  2367521
370
   100
100
AcDbPolyline
 90
        5
 70
     0
 43
0.0
 10
281.9999662644599
 20
13.29407825637392
 10
20.99981607051935
 20
13.29407825637392
 10
20.99981607051935
 20
193.0018900389566
 10
281.9999662644599
 20
193.0018900389566
 10
281.9999662644599
 20
13.29407825637392
  0
LINE
  5
63
330
1F
100
AcDbEntity
  8
外枠
  6
Continuous
 62
   250
420
  2367521
370
    25
100
AcDbLine
 10
223.3097080177524
 20
174.0786160074276
 30
0.0
 11
281.9999232007669
 21
174.0786160074276
 31
0.0
  0
LINE
  5
64
330
1F
100
AcDbEntity
  8
外枠
  6
Continuous
 62
   250
420
  2367521
370
    25
100
AcDbLine
 10
223.3097080177524
 20
50.37109023844297
 30
0.0
 11
281.9999232007669
 21
50.37109023844297
 31
0.0
  0
LINE
  5
65
330
1F
100
AcDbEntity
  8
外枠
  6
Continuous
 62
   250
420
  2367521
370
    25
100
AcDbLine
 10
223.3097080177524
 20
36.25997933925949
 30
0.0
 11
281.9999232007669
 21
36.25997933925949
 31
0.0
  0
LINE
  5
66
330
1F
100
AcDbEntity
  8
外枠
  6
Continuous
 62
   250
420
  2367521
370
    50
100
AcDbLine
 10
223.0158413772006
 20
193.3637327187979
 30
0.0
 11
223.0158413772006
 21
13.29396655992039
 31
0.0
  0
TEXT
  5
67
330
1F
100
AcDbEntity
  8
外枠
  6
Continuous
 62
   250
420
  2367521
100
AcDbText
 10
224.7190965599536
 20
186.6888051931772
 30
0.0
 40
2.688166626294454
  1
品名：
 41
0.974166170756022
  7
MS Gothic
100
AcDbText
  0
TEXT
  5
68
330
1F
100
AcDbEntity
  8
外枠
  6
Continuous
 62
   250
420
  2367521
100
AcDbText
 10
224.7190965599536
 20
168.1080059455944
 30
0.0
 40
2.688166626294454
  1
仕様：
 41
0.9978878657023111
  7
MS Gothic
100
AcDbText
  0
TEXT
  5
69
330
1F
100
AcDbEntity
  8
外枠
  6
Continuous
 62
   250
420
  2367521
100
AcDbText
 10
224.7190965599536
 20
44.16660664327048
 30
0.0
 40
2.688166626294454
  1
縮尺：
 41
0.9939999262491861
  7
MS Gothic
100
AcDbText
  0
TEXT
  5
6A
330
1F
100
AcDbEntity
  8
外枠
  6
Continuous
 62
   250
420
  2367521
100
AcDbText
 10
250.2379519709696
 20
40.59738467878129
 30
0.0
 40
2.150533301035563
  1
1/1
 41
1.000003814697266
  7
MS Gothic
100
AcDbText
  0
TEXT
  5
6B
330
1F
100
AcDbEntity
  8
外枠
  6
Continuous
 62
   250
420
  2367521
100
AcDbText
 10
232.7757967427735
 20
181.9845273775436
 30
0.0
 40
2.688166626294454
  1
巻上見切　MAL-2T (S)
 41
1.000314102172851
  7
MS Gothic
100
AcDbText
  0
TEXT
  5
6C
330
1F
100
AcDbEntity
  8
外枠
  6
Continuous
 62
   250
420
  2367521
100
AcDbText
 10
226.1633020978884
 20
24.25683874973963
 30
0.0
 40
2.553758294979732
  1
ヤスダインテリアサプライ株式会社
 41
1.0194908945184
  7
MS Gothic
100
AcDbText
  0
TEXT
  5
6D
330
1F
100
AcDbEntity
  8
外枠
  6
Continuous
 62
   250
420
  2367521
100
AcDbText
 10
227.7635273953072
 20
161.7763665048245
 30
0.0
 40
2.150533301035563
  1
材質
 41
1.028502464294433
  7
MS Gothic
100
AcDbText
  0
TEXT
  5
6E
330
1F
100
AcDbEntity
  8
外枠
  6
Continuous
 62
   250
420
  2367521
100
AcDbText
 10
232.7757967427735
 20
156.199681315683
 30
0.0
 40
2.016124969720841
  1
アルミ押出形材（A6063S-T5）/
 41
1.030580357142857
  7
MS Gothic
100
AcDbText
  0
TEXT
  5
6F
330
1F
100
AcDbEntity
  8
外枠
  6
Continuous
 62
   250
420
  2367521
100
AcDbText
 10
232.7757967427735
 20
151.9663480459279
 30
0.0
 40
2.016124969720841
  1
シルバー仕上（アルマイト）/
 41
1.002825777030285
  7
MS Gothic
100
AcDbText
  0
TEXT
  5
70
330
1F
100
AcDbEntity
  8
外枠
  6
Continuous
 62
   250
420
  2367521
100
AcDbText
 10
232.7757967427735
 20
147.7330147761729
 30
0.0
 40
2.016124969720841
  1
アクリル系両面テープ
 41
1.027643432617187
  7
MS Gothic
100
AcDbText
  0
LWPOLYLINE
  5
71
330
1F
100
AcDbEntity
  8
ISS138金台
  6
Continuous
 62
   250
420
  2367521
370
    25
100
AcDbPolyline
 90
      110
 70
     0
 43
0.0
 10
120.2164436935264
 20
95.94348551450418
 10
120.2792413237411
 20
101.9541112210815
 10
120.0883830366769
 20
102.1393173984486
 10
120.2831170561048
 20
102.3397035275735
 10
120.3106347558868
 20
104.9611950687419
 10
120.0887383121436
 20
105.1393388004686
 10
120.314165978707
 20
105.3167935131084
 10
120.4164637812614
 20
115.1437667508031
 10
120.4216206584897
 20
115.2459784259716
 10
120.4367790784009
 20
115.3452294722511
 10
120.4614330426032
 20
115.4410461890196
 10
120.4950442549347
 20
115.5329010460385
 10
120.5371605466199
 20
115.6202988108392
 10
120.5872651533436
 20
115.7027227191065
 10
120.6448520767137
 20
115.7796990702183
 10
120.7094045524152
 20
115.850700333936
 10
120.7804381139027
 20
115.9152205118678
 10
120.8574575287073
 20
115.9727859033915
 10
120.939946032514
 20
116.0228582123455
 10
121.0274083928541
 20
116.0649637381074
 10
121.1193386113357
 20
116.0985964822855
 10
121.21524145549
 20
116.1232289146412
 10
121.3146216928483
 20
116.1383765686292
 10
121.4169517931724
 20
116.1435442117808
 10
122.2696129131792
 20
116.1435442117808
 10
122.3718245883477
 20
116.1383765686292
 10
122.4710756346273
 20
116.1232289146412
 10
122.5668923513957
 20
116.0985964822855
 10
122.6587472084147
 20
116.0649745040306
 10
122.7461342072921
 20
116.0228689782687
 10
122.8285581155594
 20
115.9727859033915
 10
122.9055237007479
 20
115.9152205118678
 10
122.9765357303889
 20
115.8506895680128
 10
123.041066674244
 20
115.779688304295
 10
123.0986212998444
 20
115.7027227191065
 10
123.1487043747216
 20
115.620288044916
 10
123.1907991345603
 20
115.5329010460385
 10
123.2244318787384
 20
115.4410461890196
 10
123.2490643110941
 20
115.3452402381744
 10
123.2642119650821
 20
115.2459784259716
 10
123.2693796082337
 20
115.1437667508031
 10
123.5216144236458
 20
110.2115851062626
 10
123.5286553374398
 20
110.2040812577697
 10
123.5360515267005
 20
110.1969111528969
 10
123.5437706936581
 20
110.190107089414
 10
123.5518020723895
 20
110.1836905991675
 10
123.5601456628946
 20
110.1776616821573
 10
123.5687906992502
 20
110.1720526361532
 10
123.5777156496099
 20
110.1668957589249
 10
123.5869205139736
 20
110.1621910504724
 10
123.5963945264181
 20
110.1579708085653
 10
123.6061269210202
 20
110.1542457991268
 10
123.6161176977799
 20
110.1510375540036
 10
123.6263345589274
 20
110.1483783709652
 10
123.6367882703861
 20
110.1462682500116
 10
123.6474680662326
 20
110.1447394889126
 10
123.6583524146206
 20
110.1438028535914
 10
123.6694305496268
 20
110.1434906418177
 10
123.7692737216841
 20
110.1434906418177
 10
123.8204010911148
 20
110.1460744633934
 10
123.8700642949859
 20
110.1536429074258
 10
123.9179726533702
 20
110.1659483576805
 10
123.9639216137261
 20
110.1827539638463
 10
124.0076097302032
 20
110.2038013437656
 10
124.0488324502601
 20
110.228832115281
 10
124.0873098598927
 20
110.257598662158
 10
124.1227943428668
 20
110.2898533681623
 10
124.1550598147943
 20
110.3253486170595
 10
124.1838155957481
 20
110.3638260266922
 10
124.2088571331866
 20
110.4050379808258
 10
124.2298937471828
 20
110.4487476291494
 10
124.2466993533486
 20
110.4946858235821
 10
124.2590048036032
 20
110.5426049478895
 10
124.2665732476356
 20
110.5922466199142
 10
124.2691570692114
 20
110.6433847552681
 10
124.2691570692114
 20
116.1435442117808
 10
124.264000191983
 20
116.2457558869493
 10
124.248852537995
 20
116.3450392309985
 10
124.2242416374857
 20
116.440855947767
 10
124.1906411910774
 20
116.5327323366324
 10
124.1485464312387
 20
116.6201516332795
 10
124.098484888208
 20
116.7026078393165
 10
124.040951794454
 20
116.7796057222747
 10
123.9764423824454
 20
116.8506392837622
 10
123.9054518846509
 20
116.9152132913102
 10
123.8284970653856
 20
116.9727894487571
 10
123.7460623911951
 20
117.0229048214039
 10
123.6586538604711
 20
117.0650318790124
 10
123.566788237529
 20
117.0986753891136
 10
123.4709499889141
 20
117.1233401192391
 10
123.3716451130183
 20
117.1384985391503
 10
123.2693796082337
 20
117.1436661823019
 10
119.4166970862069
 20
117.1436661823019
 10
119.4163418107403
 20
95.14338363171797
 10
119.4981735932298
 20
95.14751774623923
 10
119.577626106685
 20
95.15965094172215
 10
119.6543225437927
 20
95.17937411308392
 10
119.7278430335468
 20
95.20628892116494
 10
119.7977892367878
 20
95.23999702680561
 10
119.8637520484327
 20
95.28007855899988
 10
119.9253438952453
 20
95.32615671043459
 10
119.9821449062195
 20
95.37780084418046
 10
120.0337890399654
 20
95.43462338700111
 10
120.0798348936304
 20
95.49622599973696
 10
120.1199056599014
 20
95.56219957730517
 10
120.1535922336956
 20
95.63213501462289
 10
120.1804855099302
 20
95.70563397253055
 10
120.2001979153687
 20
95.78229811186853
 10
120.2123095790052
 20
95.8617075616308
 10
120.2164436935264
 20
95.94348551450418
  0
LINE
  5
72
330
1F
100
AcDbEntity
  8
ISS138金台
  6
Continuous
 62
   250
420
  2367521
370
    13
100
AcDbLine
 10
126.6170972669675
 20
117.1435585230696
 30
0.0
 11
131.6223041687934
 21
117.1435585230696
 31
0.0
  0
LINE
  5
73
330
1F
100
AcDbEntity
  8
ISS138金台
  6
Continuous
 62
   250
420
  2367521
370
    13
100
AcDbLine
 10
131.1146585906156
 20
110.1435014077409
 30
0.0
 11
131.1146585906156
 21
116.8939075292332
 31
0.0
  0
LINE
  5
74
330
1F
100
AcDbEntity
  8
ISS138金台
  6
Continuous
 62
   250
420
  2367521
370
    13
100
AcDbLine
 10
131.621776638555
 20
110.1435014077409
 30
0.0
 11
126.6165697367291
 21
110.1435014077409
 31
0.0
  0
LINE
  5
75
330
1F
100
AcDbEntity
  8
ISS138金台
  6
Continuous
 62
   250
420
  2367521
370
    13
100
AcDbLine
 10
118.4168765615363
 20
117.1435585230696
 30
0.0
 11
108.4727808449962
 21
117.1435585230696
 31
0.0
  0
LINE
  5
76
330
1F
100
AcDbEntity
  8
ISS138金台
  6
Continuous
 62
   250
420
  2367521
370
    13
100
AcDbLine
 10
108.9795759152387
 20
95.14353435464324
 30
0.0
 11
108.9795759152387
 21
116.8936922107686
 31
0.0
  0
LINE
  5
77
330
1F
100
AcDbEntity
  8
ISS138金台
  6
Continuous
 62
   250
420
  2367521
370
    13
100
AcDbLine
 10
118.4167043067646
 20
95.14353435464324
 30
0.0
 11
108.4726085902245
 21
95.14353435464324
 31
0.0
  0
LINE
  5
78
330
1F
100
AcDbEntity
  8
ISS138金台
  6
Continuous
 62
   250
420
  2367521
370
    13
100
AcDbLine
 10
123.2694765015428
 20
94.14343391596857
 30
0.0
 11
123.2694765015428
 21
89.1382216311811
 31
0.0
  0
LINE
  5
79
330
1F
100
AcDbEntity
  8
ISS138金台
  6
Continuous
 62
   250
420
  2367521
370
    13
100
AcDbLine
 10
120.4165929723402
 20
94.14343391596857
 30
0.0
 11
120.4165929723402
 21
89.1382216311811
 31
0.0
  0
HATCH
  5
7A
330
1F
100
AcDbEntity
  8
ISS138金台
  6
Continuous
 62
   250
420
  2367521
370
    13
100
AcDbHatch
 10
0.0
 20
0.0
 30
0.0
210
0.0
220
0.0
230
1.0
  2
SOLID
 70
     1
 71
     0
 91
        1
 92
        3
 72
     0
 73
     1
 93
       67
 10
130.8648891716237
 20
117.1435585230696
 10
130.8661703164883
 20
117.1180217531623
 10
130.8699599214661
 20
117.0932385978813
 10
130.8761072636318
 20
117.0692844186892
 10
130.8845154496764
 20
117.0463314703577
 10
130.8950445225976
 20
117.0244981780424
 10
130.9075545253937
 20
117.003913732822
 10
130.921927032909
 20
116.9846857939289
 10
130.9380436199879
 20
116.9669543183651
 10
130.9557750955517
 20
116.9508377312862
 10
130.975013800368
 20
116.9364436919245
 10
130.9956090115116
 20
116.9239336891284
 10
131.0174423038269
 20
116.9134153821303
 10
131.0403844862352
 20
116.9050179620091
 10
131.0643171335808
 20
116.8988598539201
 10
131.0891218207083
 20
116.8950810148656
 10
131.1146585906156
 20
116.8937891040777
 10
131.1146585906156
 20
116.8937891040777
 10
131.140249190139
 20
116.8950702489423
 10
131.1651184728059
 20
116.8988706198434
 10
131.1890834179212
 20
116.9050179620091
 10
131.2120794299456
 20
116.9134153821303
 10
131.2339450200307
 20
116.9239336891284
 10
131.254572528944
 20
116.9364544578477
 10
131.2738112337603
 20
116.950826965363
 10
131.2915750070937
 20
116.9669543183651
 10
131.3077131260191
 20
116.9846857939289
 10
131.3220963994576
 20
117.003913732822
 10
131.3346171681769
 20
117.0245089439656
 10
131.345135475175
 20
117.0463422362809
 10
131.3535436612195
 20
117.0692951846124
 10
131.3597017693084
 20
117.0932278319581
 10
131.363480608363
 20
117.1180217531623
 10
131.3647725191509
 20
117.1435585230696
 10
131.3647725191509
 20
117.1435585230696
 10
131.363480608363
 20
117.169149122593
 10
131.3597017693084
 20
117.1940076393366
 10
131.3535436612195
 20
117.2179941162984
 10
131.345135475175
 20
117.2409793623996
 10
131.3346279341002
 20
117.2628557184079
 10
131.3221071653809
 20
117.2834724613979
 10
131.3077454237888
 20
117.3027219321375
 10
131.2916180707867
 20
117.320485705471
 10
131.2738865952229
 20
117.3366130584731
 10
131.2546586563298
 20
117.3510070978349
 10
131.2340634451862
 20
117.3635278665542
 10
131.2122301528709
 20
117.3740461735522
 10
131.1892879704626
 20
117.3824543595967
 10
131.1653445571937
 20
117.3886124676857
 10
131.1405506359895
 20
117.3923913067402
 10
131.1150138660822
 20
117.3936832175281
 10
131.1150138660822
 20
117.3936832175281
 10
131.0894232665588
 20
117.3923913067402
 10
131.0645539838919
 20
117.3886017017624
 10
131.0405675069301
 20
117.3824543595967
 10
131.0175822608289
 20
117.3740461735522
 10
130.9957274366672
 20
117.3635171006309
 10
130.9750891618306
 20
117.3510070978349
 10
130.9558504570143
 20
117.3366130584731
 10
130.9380866836808
 20
117.320485705471
 10
130.9219485647554
 20
117.3027219321375
 10
130.9075652913169
 20
117.2834724613979
 10
130.8950445225976
 20
117.2628557184079
 10
130.8845262155996
 20
117.2409793623996
 10
130.8761180295551
 20
117.2179941162984
 10
130.8699706873894
 20
117.1940076393366
 10
130.8661810824116
 20
117.1691598885162
 97
        0
 75
     1
 76
     1
 98
        0
  0
LWPOLYLINE
  5
7B
330
1F
100
AcDbEntity
  8
ISS138金台
  6
Continuous
 62
   250
420
  2367521
370
    13
100
AcDbPolyline
 90
       68
 70
     0
 43
0.0
 10
130.8648891716237
 20
117.1435585230696
 10
130.8661703164883
 20
117.1180217531623
 10
130.8699599214661
 20
117.0932385978813
 10
130.8761072636318
 20
117.0692844186892
 10
130.8845154496764
 20
117.0463314703577
 10
130.8950445225976
 20
117.0244981780424
 10
130.9075545253937
 20
117.003913732822
 10
130.921927032909
 20
116.9846857939289
 10
130.9380436199879
 20
116.9669543183651
 10
130.9557750955517
 20
116.9508377312862
 10
130.975013800368
 20
116.9364436919245
 10
130.9956090115116
 20
116.9239336891284
 10
131.0174423038269
 20
116.9134153821303
 10
131.0403844862352
 20
116.9050179620091
 10
131.0643171335808
 20
116.8988598539201
 10
131.0891218207083
 20
116.8950810148656
 10
131.1146585906156
 20
116.8937891040777
 10
131.1146585906156
 20
116.8937891040777
 10
131.140249190139
 20
116.8950702489423
 10
131.1651184728059
 20
116.8988706198434
 10
131.1890834179212
 20
116.9050179620091
 10
131.2120794299456
 20
116.9134153821303
 10
131.2339450200307
 20
116.9239336891284
 10
131.254572528944
 20
116.9364544578477
 10
131.2738112337603
 20
116.950826965363
 10
131.2915750070937
 20
116.9669543183651
 10
131.3077131260191
 20
116.9846857939289
 10
131.3220963994576
 20
117.003913732822
 10
131.3346171681769
 20
117.0245089439656
 10
131.345135475175
 20
117.0463422362809
 10
131.3535436612195
 20
117.0692951846124
 10
131.3597017693084
 20
117.0932278319581
 10
131.363480608363
 20
117.1180217531623
 10
131.3647725191509
 20
117.1435585230696
 10
131.3647725191509
 20
117.1435585230696
 10
131.363480608363
 20
117.169149122593
 10
131.3597017693084
 20
117.1940076393366
 10
131.3535436612195
 20
117.2179941162984
 10
131.345135475175
 20
117.2409793623996
 10
131.3346279341002
 20
117.2628557184079
 10
131.3221071653809
 20
117.2834724613979
 10
131.3077454237888
 20
117.3027219321375
 10
131.2916180707867
 20
117.320485705471
 10
131.2738865952229
 20
117.3366130584731
 10
131.2546586563298
 20
117.3510070978349
 10
131.2340634451862
 20
117.3635278665542
 10
131.2122301528709
 20
117.3740461735522
 10
131.1892879704626
 20
117.3824543595967
 10
131.1653445571937
 20
117.3886124676857
 10
131.1405506359895
 20
117.3923913067402
 10
131.1150138660822
 20
117.3936832175281
 10
131.1150138660822
 20
117.3936832175281
 10
131.0894232665588
 20
117.3923913067402
 10
131.0645539838919
 20
117.3886017017624
 10
131.0405675069301
 20
117.3824543595967
 10
131.0175822608289
 20
117.3740461735522
 10
130.9957274366672
 20
117.3635171006309
 10
130.9750891618306
 20
117.3510070978349
 10
130.9558504570143
 20
117.3366130584731
 10
130.9380866836808
 20
117.320485705471
 10
130.9219485647554
 20
117.3027219321375
 10
130.9075652913169
 20
117.2834724613979
 10
130.8950445225976
 20
117.2628557184079
 10
130.8845262155996
 20
117.2409793623996
 10
130.8761180295551
 20
117.2179941162984
 10
130.8699706873894
 20
117.1940076393366
 10
130.8661810824116
 20
117.1691598885162
 10
130.8648891716237
 20
117.1435585230696
  0
HATCH
  5
7C
330
1F
100
AcDbEntity
  8
ISS138金台
  6
Continuous
 62
   250
420
  2367521
370
    13
100
AcDbHatch
 10
0.0
 20
0.0
 30
0.0
210
0.0
220
0.0
230
1.0
  2
SOLID
 70
     1
 71
     0
 91
        1
 92
        3
 72
     0
 73
     1
 93
       67
 10
120.1662960231099
 20
89.64552808277708
 10
120.167598699821
 20
89.61998592990818
 10
120.1713667729524
 20
89.59518124278071
 10
120.1775248810413
 20
89.5712270635886
 10
120.1859330670858
 20
89.54825258341063
 10
120.1964621400071
 20
89.52639775924885
 10
120.2089721428031
 20
89.50577025033554
 10
120.2233661821649
 20
89.48651001367276
 10
120.239493535167
 20
89.46874085737767
 10
120.2572573085005
 20
89.45258658956745
 10
120.2765067792401
 20
89.43817640132087
 10
120.2971235222301
 20
89.4256341007551
 10
120.3189891123151
 20
89.41508887894896
 10
120.3419851243396
 20
89.40666992698121
 10
120.3659716013014
 20
89.40049567000743
 10
120.3908193521218
 20
89.396700682068
 10
120.4164207175684
 20
89.39540877128012
 10
120.4164207175684
 20
89.39540877128012
 10
120.4419574874757
 20
89.39670606502963
 10
120.4667621746032
 20
89.40050643593067
 10
120.4906948219488
 20
89.4066645440196
 10
120.5136262384339
 20
89.41509426191058
 10
120.5354702966724
 20
89.4256341007551
 10
120.5560547418928
 20
89.43817640132087
 10
120.5752826807859
 20
89.45259197252906
 10
120.5930249222729
 20
89.46874085737767
 10
120.609152275275
 20
89.48651539663439
 10
120.6235247827903
 20
89.50577025033554
 10
120.6360347855864
 20
89.52639237628722
 10
120.6465530925844
 20
89.54825796637225
 10
120.6549505127057
 20
89.5712270635886
 10
120.6611086207946
 20
89.59517585981908
 10
120.6648874598492
 20
89.61998592990818
 10
120.6661793706371
 20
89.64552808277708
 10
120.6661793706371
 20
89.64552808277708
 10
120.6648874598492
 20
89.67107023564596
 10
120.6611193867179
 20
89.69587492277343
 10
120.6549505127057
 20
89.71982910196553
 10
120.6465530925844
 20
89.74279819918189
 10
120.6360455515096
 20
89.7646637892669
 10
120.6235247827903
 20
89.7852859152186
 10
120.6091415093518
 20
89.80454615188137
 10
120.5930249222729
 20
89.82231530817646
 10
120.5752934467091
 20
89.8384695759867
 10
120.5560547418928
 20
89.85287976423328
 10
120.5354702966724
 20
89.86542206479902
 10
120.5136370043571
 20
89.87596190364356
 10
120.4906840560256
 20
89.88438623857292
 10
120.46675140868
 20
89.89055511258508
 10
120.4419574874757
 20
89.89435548348612
 10
120.4164207175684
 20
89.89564739427402
 10
120.4164207175684
 20
89.89564739427402
 10
120.3908193521218
 20
89.89435548348612
 10
120.3659608353781
 20
89.89056587850831
 10
120.3419851243396
 20
89.88438623857292
 10
120.3189998782384
 20
89.87596728660517
 10
120.2971342881534
 20
89.86542206479902
 10
120.2765067792401
 20
89.85288514719488
 10
120.2572573085005
 20
89.8384695759867
 10
120.2395043010903
 20
89.82231530817646
 10
120.2233661821649
 20
89.80454615188137
 10
120.2089721428031
 20
89.7852859152186
 10
120.1964513740838
 20
89.7646637892669
 10
120.1859330670858
 20
89.7428035821435
 10
120.1775248810413
 20
89.71983448492716
 10
120.1713667729524
 20
89.69588030573505
 10
120.1675879338978
 20
89.67107023564596
 97
        0
 75
     1
 76
     1
 98
        0
  0
LWPOLYLINE
  5
7D
330
1F
100
AcDbEntity
  8
ISS138金台
  6
Continuous
 62
   250
420
  2367521
370
    13
100
AcDbPolyline
 90
       68
 70
     0
 43
0.0
 10
120.1662960231099
 20
89.64552808277708
 10
120.167598699821
 20
89.61998592990818
 10
120.1713667729524
 20
89.59518124278071
 10
120.1775248810413
 20
89.5712270635886
 10
120.1859330670858
 20
89.54825258341063
 10
120.1964621400071
 20
89.52639775924885
 10
120.2089721428031
 20
89.50577025033554
 10
120.2233661821649
 20
89.48651001367276
 10
120.239493535167
 20
89.46874085737767
 10
120.2572573085005
 20
89.45258658956745
 10
120.2765067792401
 20
89.43817640132087
 10
120.2971235222301
 20
89.4256341007551
 10
120.3189891123151
 20
89.41508887894896
 10
120.3419851243396
 20
89.40666992698121
 10
120.3659716013014
 20
89.40049567000743
 10
120.3908193521218
 20
89.396700682068
 10
120.4164207175684
 20
89.39540877128012
 10
120.4164207175684
 20
89.39540877128012
 10
120.4419574874757
 20
89.39670606502963
 10
120.4667621746032
 20
89.40050643593067
 10
120.4906948219488
 20
89.4066645440196
 10
120.5136262384339
 20
89.41509426191058
 10
120.5354702966724
 20
89.4256341007551
 10
120.5560547418928
 20
89.43817640132087
 10
120.5752826807859
 20
89.45259197252906
 10
120.5930249222729
 20
89.46874085737767
 10
120.609152275275
 20
89.48651539663439
 10
120.6235247827903
 20
89.50577025033554
 10
120.6360347855864
 20
89.52639237628722
 10
120.6465530925844
 20
89.54825796637225
 10
120.6549505127057
 20
89.5712270635886
 10
120.6611086207946
 20
89.59517585981908
 10
120.6648874598492
 20
89.61998592990818
 10
120.6661793706371
 20
89.64552808277708
 10
120.6661793706371
 20
89.64552808277708
 10
120.6648874598492
 20
89.67107023564596
 10
120.6611193867179
 20
89.69587492277343
 10
120.6549505127057
 20
89.71982910196553
 10
120.6465530925844
 20
89.74279819918189
 10
120.6360455515096
 20
89.7646637892669
 10
120.6235247827903
 20
89.7852859152186
 10
120.6091415093518
 20
89.80454615188137
 10
120.5930249222729
 20
89.82231530817646
 10
120.5752934467091
 20
89.8384695759867
 10
120.5560547418928
 20
89.85287976423328
 10
120.5354702966724
 20
89.86542206479902
 10
120.5136370043571
 20
89.87596190364356
 10
120.4906840560256
 20
89.88438623857292
 10
120.46675140868
 20
89.89055511258508
 10
120.4419574874757
 20
89.89435548348612
 10
120.4164207175684
 20
89.89564739427402
 10
120.4164207175684
 20
89.89564739427402
 10
120.3908193521218
 20
89.89435548348612
 10
120.3659608353781
 20
89.89056587850831
 10
120.3419851243396
 20
89.88438623857292
 10
120.3189998782384
 20
89.87596728660517
 10
120.2971342881534
 20
89.86542206479902
 10
120.2765067792401
 20
89.85288514719488
 10
120.2572573085005
 20
89.8384695759867
 10
120.2395043010903
 20
89.82231530817646
 10
120.2233661821649
 20
89.80454615188137
 10
120.2089721428031
 20
89.7852859152186
 10
120.1964513740838
 20
89.7646637892669
 10
120.1859330670858
 20
89.7428035821435
 10
120.1775248810413
 20
89.71983448492716
 10
120.1713667729524
 20
89.69588030573505
 10
120.1675879338978
 20
89.67107023564596
 10
120.1662960231099
 20
89.64552808277708
  0
HATCH
  5
7E
330
1F
100
AcDbEntity
  8
ISS138金台
  6
Continuous
 62
   250
420
  2367521
370
    13
100
AcDbHatch
 10
0.0
 20
0.0
 30
0.0
210
0.0
220
0.0
230
1.0
  2
SOLID
 70
     1
 71
     0
 91
        1
 92
        3
 72
     0
 73
     1
 93
       67
 10
108.729957219172
 20
117.1435585230696
 10
108.7312383640367
 20
117.1180217531623
 10
108.7350279690145
 20
117.0932385978813
 10
108.7411753111802
 20
117.0692844186892
 10
108.7495834972247
 20
117.0463314703577
 10
108.7601018042228
 20
117.0244981780424
 10
108.7726118070188
 20
117.003913732822
 10
108.7869950804573
 20
116.9846857939289
 10
108.8031116675362
 20
116.9669543183651
 10
108.8208539090232
 20
116.9508377312862
 10
108.8400818479163
 20
116.9364436919245
 10
108.8606770590599
 20
116.9239336891284
 10
108.8825103513752
 20
116.9134153821303
 10
108.9054525337835
 20
116.9050179620091
 10
108.9293959470524
 20
116.8988598539201
 10
108.9541898682566
 20
116.8950810148656
 10
108.9797266381639
 20
116.8937891040777
 10
108.9797266381639
 20
116.8937891040777
 10
109.0053172376874
 20
116.8950702489423
 10
109.030175754431
 20
116.8988706198434
 10
109.0541622313928
 20
116.9050179620091
 10
109.0771367115707
 20
116.9134153821303
 10
109.099013067579
 20
116.9239336891284
 10
109.1196405764923
 20
116.9364544578477
 10
109.1388900472318
 20
116.950826965363
 10
109.1566430546421
 20
116.9669543183651
 10
109.1727704076442
 20
116.9846857939289
 10
109.187164447006
 20
117.003913732822
 10
109.1996852157253
 20
117.0245089439656
 10
109.2102035227233
 20
117.0463422362809
 10
109.2186117087679
 20
117.0692951846124
 10
109.2247698168568
 20
117.0932278319581
 10
109.2285486559114
 20
117.1180217531623
 10
109.2298405666992
 20
117.1435585230696
 10
109.2298405666992
 20
117.1435585230696
 10
109.2285486559114
 20
117.169149122593
 10
109.2247698168568
 20
117.1940076393366
 10
109.2186009428446
 20
117.2179941162984
 10
109.2102035227233
 20
117.2409793623996
 10
109.1996852157253
 20
117.2628557184079
 10
109.187164447006
 20
117.2834724613979
 10
109.1727811735675
 20
117.3027219321375
 10
109.1566430546421
 20
117.320485705471
 10
109.1388900472318
 20
117.3366130584731
 10
109.1196298105691
 20
117.3510070978349
 10
109.099013067579
 20
117.3635278665542
 10
109.077147477494
 20
117.3740461735522
 10
109.0541622313928
 20
117.3824543595967
 10
109.030175754431
 20
117.3886124676857
 10
109.0053280036106
 20
117.3923913067402
 10
108.9797266381639
 20
117.3936832175281
 10
108.9797266381639
 20
117.3936832175281
 10
108.9541898682566
 20
117.3923913067402
 10
108.9293744152059
 20
117.3886017017624
 10
108.9054525337835
 20
117.3824543595967
 10
108.8825103513752
 20
117.3740461735522
 10
108.8606662931367
 20
117.3635171006309
 10
108.8400710819931
 20
117.3510070978349
 10
108.8208539090232
 20
117.3366130584731
 10
108.8031116675362
 20
117.320485705471
 10
108.7869950804573
 20
117.3027219321375
 10
108.7726118070188
 20
117.2834724613979
 10
108.7601018042228
 20
117.2628557184079
 10
108.7495834972247
 20
117.2409793623996
 10
108.7411860771034
 20
117.2179941162984
 10
108.7350279690145
 20
117.1940076393366
 10
108.7312491299599
 20
117.1691598885162
 97
        0
 75
     1
 76
     1
 98
        0
  0
LWPOLYLINE
  5
7F
330
1F
100
AcDbEntity
  8
ISS138金台
  6
Continuous
 62
   250
420
  2367521
370
    13
100
AcDbPolyline
 90
       68
 70
     0
 43
0.0
 10
108.729957219172
 20
117.1435585230696
 10
108.7312383640367
 20
117.1180217531623
 10
108.7350279690145
 20
117.0932385978813
 10
108.7411753111802
 20
117.0692844186892
 10
108.7495834972247
 20
117.0463314703577
 10
108.7601018042228
 20
117.0244981780424
 10
108.7726118070188
 20
117.003913732822
 10
108.7869950804573
 20
116.9846857939289
 10
108.8031116675362
 20
116.9669543183651
 10
108.8208539090232
 20
116.9508377312862
 10
108.8400818479163
 20
116.9364436919245
 10
108.8606770590599
 20
116.9239336891284
 10
108.8825103513752
 20
116.9134153821303
 10
108.9054525337835
 20
116.9050179620091
 10
108.9293959470524
 20
116.8988598539201
 10
108.9541898682566
 20
116.8950810148656
 10
108.9797266381639
 20
116.8937891040777
 10
108.9797266381639
 20
116.8937891040777
 10
109.0053172376874
 20
116.8950702489423
 10
109.030175754431
 20
116.8988706198434
 10
109.0541622313928
 20
116.9050179620091
 10
109.0771367115707
 20
116.9134153821303
 10
109.099013067579
 20
116.9239336891284
 10
109.1196405764923
 20
116.9364544578477
 10
109.1388900472318
 20
116.950826965363
 10
109.1566430546421
 20
116.9669543183651
 10
109.1727704076442
 20
116.9846857939289
 10
109.187164447006
 20
117.003913732822
 10
109.1996852157253
 20
117.0245089439656
 10
109.2102035227233
 20
117.0463422362809
 10
109.2186117087679
 20
117.0692951846124
 10
109.2247698168568
 20
117.0932278319581
 10
109.2285486559114
 20
117.1180217531623
 10
109.2298405666992
 20
117.1435585230696
 10
109.2298405666992
 20
117.1435585230696
 10
109.2285486559114
 20
117.169149122593
 10
109.2247698168568
 20
117.1940076393366
 10
109.2186009428446
 20
117.2179941162984
 10
109.2102035227233
 20
117.2409793623996
 10
109.1996852157253
 20
117.2628557184079
 10
109.187164447006
 20
117.2834724613979
 10
109.1727811735675
 20
117.3027219321375
 10
109.1566430546421
 20
117.320485705471
 10
109.1388900472318
 20
117.3366130584731
 10
109.1196298105691
 20
117.3510070978349
 10
109.099013067579
 20
117.3635278665542
 10
109.077147477494
 20
117.3740461735522
 10
109.0541622313928
 20
117.3824543595967
 10
109.030175754431
 20
117.3886124676857
 10
109.0053280036106
 20
117.3923913067402
 10
108.9797266381639
 20
117.3936832175281
 10
108.9797266381639
 20
117.3936832175281
 10
108.9541898682566
 20
117.3923913067402
 10
108.9293744152059
 20
117.3886017017624
 10
108.9054525337835
 20
117.3824543595967
 10
108.8825103513752
 20
117.3740461735522
 10
108.8606662931367
 20
117.3635171006309
 10
108.8400710819931
 20
117.3510070978349
 10
108.8208539090232
 20
117.3366130584731
 10
108.8031116675362
 20
117.320485705471
 10
108.7869950804573
 20
117.3027219321375
 10
108.7726118070188
 20
117.2834724613979
 10
108.7601018042228
 20
117.2628557184079
 10
108.7495834972247
 20
117.2409793623996
 10
108.7411860771034
 20
117.2179941162984
 10
108.7350279690145
 20
117.1940076393366
 10
108.7312491299599
 20
117.1691598885162
 10
108.729957219172
 20
117.1435585230696
  0
HATCH
  5
80
330
1F
100
AcDbEntity
  8
ISS138金台
  6
Continuous
 62
   250
420
  2367521
370
    13
100
AcDbHatch
 10
0.0
 20
0.0
 30
0.0
210
0.0
220
0.0
230
1.0
  2
SOLID
 70
     1
 71
     0
 91
        1
 92
        3
 72
     0
 73
     1
 93
       67
 10
130.8648891716237
 20
110.1435014077409
 10
130.8661703164883
 20
110.1179754037569
 10
130.8699599214661
 20
110.0931707166294
 10
130.8761072636318
 20
110.0692380692837
 10
130.8845154496764
 20
110.0462851209522
 10
130.8950445225976
 20
110.0244518286369
 10
130.9075545253937
 20
110.0038566174933
 10
130.921927032909
 20
109.9846286786002
 10
130.9380436199879
 20
109.9668864371132
 10
130.9557750955517
 20
109.9507698500343
 10
130.975013800368
 20
109.9363865765958
 10
130.9956090115116
 20
109.9238765737997
 10
131.0174423038269
 20
109.9133582668017
 10
131.0403844862352
 20
109.9049608466804
 10
131.0643171335808
 20
109.8988027385915
 10
131.0891218207083
 20
109.8950238995369
 10
131.1146585906156
 20
109.893731988749
 10
131.1146585906156
 20
109.893731988749
 10
131.140249190139
 20
109.8950238995369
 10
131.1651184728059
 20
109.8988027385915
 10
131.1890834179212
 20
109.9049608466804
 10
131.2120794299456
 20
109.9133690327249
 10
131.2339450200307
 20
109.9238765737997
 10
131.254572528944
 20
109.9363865765958
 10
131.2738112337603
 20
109.9507698500343
 10
131.2915750070937
 20
109.9668864371132
 10
131.3077131260191
 20
109.9846286786002
 10
131.3220963994576
 20
110.0038566174933
 10
131.3346171681769
 20
110.0244518286369
 10
131.345135475175
 20
110.0462851209522
 10
131.3535436612195
 20
110.0692380692837
 10
131.3597017693084
 20
110.0931707166294
 10
131.363480608363
 20
110.1179646378336
 10
131.3647725191509
 20
110.1435014077409
 10
131.3647725191509
 20
110.1435014077409
 10
131.363480608363
 20
110.1690920072643
 10
131.3596910033852
 20
110.1939289921615
 10
131.3535328952963
 20
110.2179047032001
 10
131.345135475175
 20
110.2408684174548
 10
131.3346171681769
 20
110.2627124756934
 10
131.3220963994576
 20
110.283307686837
 10
131.3077131260191
 20
110.3025140938836
 10
131.2915750070937
 20
110.3202455694474
 10
131.2738219996835
 20
110.3363406246798
 10
131.254572528944
 20
110.3507023662718
 10
131.2339450200307
 20
110.3632016031447
 10
131.2120794299456
 20
110.373687612373
 10
131.1890941838444
 20
110.3820742665711
 10
131.1651077068826
 20
110.3882108428136
 10
131.1402599560622
 20
110.3919896818681
 10
131.1146585906156
 20
110.3932708267328
 10
131.1146585906156
 20
110.3932708267328
 10
131.0891218207083
 20
110.3919896818681
 10
131.0643171335808
 20
110.3882216087368
 10
131.0403737203119
 20
110.3820635006478
 10
131.0174315379037
 20
110.3736983782963
 10
130.9956090115116
 20
110.3632016031447
 10
130.9750030344447
 20
110.3507023662718
 10
130.9557858614749
 20
110.336351390603
 10
130.9380436199879
 20
110.3202455694474
 10
130.921927032909
 20
110.3025140938836
 10
130.9075437594705
 20
110.2832969209137
 10
130.8950337566744
 20
110.2627124756934
 10
130.8845154496764
 20
110.2408684174548
 10
130.8761180295551
 20
110.2179047032001
 10
130.8699599214661
 20
110.1939397580847
 10
130.8661810824116
 20
110.1690920072643
 97
        0
 75
     1
 76
     1
 98
        0
  0
LWPOLYLINE
  5
81
330
1F
100
AcDbEntity
  8
ISS138金台
  6
Continuous
 62
   250
420
  2367521
370
    13
100
AcDbPolyline
 90
       68
 70
     0
 43
0.0
 10
130.8648891716237
 20
110.1435014077409
 10
130.8661703164883
 20
110.1179754037569
 10
130.8699599214661
 20
110.0931707166294
 10
130.8761072636318
 20
110.0692380692837
 10
130.8845154496764
 20
110.0462851209522
 10
130.8950445225976
 20
110.0244518286369
 10
130.9075545253937
 20
110.0038566174933
 10
130.921927032909
 20
109.9846286786002
 10
130.9380436199879
 20
109.9668864371132
 10
130.9557750955517
 20
109.9507698500343
 10
130.975013800368
 20
109.9363865765958
 10
130.9956090115116
 20
109.9238765737997
 10
131.0174423038269
 20
109.9133582668017
 10
131.0403844862352
 20
109.9049608466804
 10
131.0643171335808
 20
109.8988027385915
 10
131.0891218207083
 20
109.8950238995369
 10
131.1146585906156
 20
109.893731988749
 10
131.1146585906156
 20
109.893731988749
 10
131.140249190139
 20
109.8950238995369
 10
131.1651184728059
 20
109.8988027385915
 10
131.1890834179212
 20
109.9049608466804
 10
131.2120794299456
 20
109.9133690327249
 10
131.2339450200307
 20
109.9238765737997
 10
131.254572528944
 20
109.9363865765958
 10
131.2738112337603
 20
109.9507698500343
 10
131.2915750070937
 20
109.9668864371132
 10
131.3077131260191
 20
109.9846286786002
 10
131.3220963994576
 20
110.0038566174933
 10
131.3346171681769
 20
110.0244518286369
 10
131.345135475175
 20
110.0462851209522
 10
131.3535436612195
 20
110.0692380692837
 10
131.3597017693084
 20
110.0931707166294
 10
131.363480608363
 20
110.1179646378336
 10
131.3647725191509
 20
110.1435014077409
 10
131.3647725191509
 20
110.1435014077409
 10
131.363480608363
 20
110.1690920072643
 10
131.3596910033852
 20
110.1939289921615
 10
131.3535328952963
 20
110.2179047032001
 10
131.345135475175
 20
110.2408684174548
 10
131.3346171681769
 20
110.2627124756934
 10
131.3220963994576
 20
110.283307686837
 10
131.3077131260191
 20
110.3025140938836
 10
131.2915750070937
 20
110.3202455694474
 10
131.2738219996835
 20
110.3363406246798
 10
131.254572528944
 20
110.3507023662718
 10
131.2339450200307
 20
110.3632016031447
 10
131.2120794299456
 20
110.373687612373
 10
131.1890941838444
 20
110.3820742665711
 10
131.1651077068826
 20
110.3882108428136
 10
131.1402599560622
 20
110.3919896818681
 10
131.1146585906156
 20
110.3932708267328
 10
131.1146585906156
 20
110.3932708267328
 10
131.0891218207083
 20
110.3919896818681
 10
131.0643171335808
 20
110.3882216087368
 10
131.0403737203119
 20
110.3820635006478
 10
131.0174315379037
 20
110.3736983782963
 10
130.9956090115116
 20
110.3632016031447
 10
130.9750030344447
 20
110.3507023662718
 10
130.9557858614749
 20
110.336351390603
 10
130.9380436199879
 20
110.3202455694474
 10
130.921927032909
 20
110.3025140938836
 10
130.9075437594705
 20
110.2832969209137
 10
130.8950337566744
 20
110.2627124756934
 10
130.8845154496764
 20
110.2408684174548
 10
130.8761180295551
 20
110.2179047032001
 10
130.8699599214661
 20
110.1939397580847
 10
130.8661810824116
 20
110.1690920072643
 10
130.8648891716237
 20
110.1435014077409
  0
HATCH
  5
82
330
1F
100
AcDbEntity
  8
ISS138金台
  6
Continuous
 62
   250
420
  2367521
370
    13
100
AcDbHatch
 10
0.0
 20
0.0
 30
0.0
210
0.0
220
0.0
230
1.0
  2
SOLID
 70
     1
 71
     0
 91
        1
 92
        3
 72
     0
 73
     1
 93
       67
 10
108.7294619867033
 20
95.14353435464324
 10
108.7307538974912
 20
95.11798681881272
 10
108.734543502469
 20
95.09317136576202
 10
108.7406800787115
 20
95.06923871841637
 10
108.749088264756
 20
95.04625347231519
 10
108.7596173376773
 20
95.02439864815338
 10
108.7721381063966
 20
95.00377113924009
 10
108.7865213798351
 20
94.98451090257731
 10
108.8026594987605
 20
94.96674712924383
 10
108.8204125061707
 20
94.95058747847199
 10
108.8396727428335
 20
94.93618267318703
 10
108.8602894858236
 20
94.92364037262126
 10
108.8821658418318
 20
94.91310053377674
 10
108.905151087933
 20
94.90467081588577
 10
108.9291375648948
 20
94.8985019418736
 10
108.9539853157152
 20
94.89470157097256
 10
108.9795866811619
 20
94.89340966018466
 10
108.9795866811619
 20
94.89340966018466
 10
109.0051234510692
 20
94.8947123368958
 10
109.0299173722734
 20
94.8985019418736
 10
109.053850019619
 20
94.90467081588577
 10
109.0768029679505
 20
94.9130897678535
 10
109.0986254943426
 20
94.92364037262126
 10
109.1192314714095
 20
94.93618267318703
 10
109.1384486443793
 20
94.95058747847199
 10
109.1561908858663
 20
94.96674712924383
 10
109.1723074729452
 20
94.98451090257731
 10
109.1866907463837
 20
95.00378190516332
 10
109.1992007491798
 20
95.02439864815338
 10
109.2097190561779
 20
95.04626423823842
 10
109.2181164762991
 20
95.06922795249315
 10
109.2242745843881
 20
95.09318213168525
 10
109.2280534234427
 20
95.11799758473595
 10
109.2293453342306
 20
95.14353435464324
 10
109.2293453342306
 20
95.14353435464324
 10
109.2280534234427
 20
95.1690711245505
 10
109.2242745843881
 20
95.19387581167797
 10
109.2181164762991
 20
95.21784075679332
 10
109.2097082902546
 20
95.24080447104805
 10
109.1992007491798
 20
95.26265929520983
 10
109.1866907463837
 20
95.28329757004636
 10
109.1723074729452
 20
95.30254704078592
 10
109.1561908858663
 20
95.32032158004262
 10
109.1384594103026
 20
95.33647046489124
 10
109.1192314714095
 20
95.35088603609944
 10
109.0986362602659
 20
95.36342833666518
 10
109.0768029679505
 20
95.37397894143295
 10
109.053850019619
 20
95.3823978934007
 10
109.0299173722734
 20
95.38856676741287
 10
109.0051234510692
 20
95.39236713831392
 10
108.9795866811619
 20
95.39365904910179
 10
108.9795866811619
 20
95.39365904910179
 10
108.9539853157152
 20
95.39236713831392
 10
108.9291375648948
 20
95.3885775333361
 10
108.9051403220098
 20
95.3823978934007
 10
108.8821550759086
 20
95.37396817550972
 10
108.8603002517468
 20
95.36342833666518
 10
108.8396727428335
 20
95.35089680202267
 10
108.8204125061707
 20
95.33647046489124
 10
108.8026594987605
 20
95.32032158004262
 10
108.7865213798351
 20
95.30254704078592
 10
108.7721381063966
 20
95.28328680412314
 10
108.7596173376773
 20
95.26267006113306
 10
108.7490990306792
 20
95.24080447104805
 10
108.7406908446347
 20
95.21784075679332
 10
108.734543502469
 20
95.1938865776012
 10
108.7307538974912
 20
95.1690711245505
 97
        0
 75
     1
 76
     1
 98
        0
  0
LWPOLYLINE
  5
83
330
1F
100
AcDbEntity
  8
ISS138金台
  6
Continuous
 62
   250
420
  2367521
370
    13
100
AcDbPolyline
 90
       68
 70
     0
 43
0.0
 10
108.7294619867033
 20
95.14353435464324
 10
108.7307538974912
 20
95.11798681881272
 10
108.734543502469
 20
95.09317136576202
 10
108.7406800787115
 20
95.06923871841637
 10
108.749088264756
 20
95.04625347231519
 10
108.7596173376773
 20
95.02439864815338
 10
108.7721381063966
 20
95.00377113924009
 10
108.7865213798351
 20
94.98451090257731
 10
108.8026594987605
 20
94.96674712924383
 10
108.8204125061707
 20
94.95058747847199
 10
108.8396727428335
 20
94.93618267318703
 10
108.8602894858236
 20
94.92364037262126
 10
108.8821658418318
 20
94.91310053377674
 10
108.905151087933
 20
94.90467081588577
 10
108.9291375648948
 20
94.8985019418736
 10
108.9539853157152
 20
94.89470157097256
 10
108.9795866811619
 20
94.89340966018466
 10
108.9795866811619
 20
94.89340966018466
 10
109.0051234510692
 20
94.8947123368958
 10
109.0299173722734
 20
94.8985019418736
 10
109.053850019619
 20
94.90467081588577
 10
109.0768029679505
 20
94.9130897678535
 10
109.0986254943426
 20
94.92364037262126
 10
109.1192314714095
 20
94.93618267318703
 10
109.1384486443793
 20
94.95058747847199
 10
109.1561908858663
 20
94.96674712924383
 10
109.1723074729452
 20
94.98451090257731
 10
109.1866907463837
 20
95.00378190516332
 10
109.1992007491798
 20
95.02439864815338
 10
109.2097190561779
 20
95.04626423823842
 10
109.2181164762991
 20
95.06922795249315
 10
109.2242745843881
 20
95.09318213168525
 10
109.2280534234427
 20
95.11799758473595
 10
109.2293453342306
 20
95.14353435464324
 10
109.2293453342306
 20
95.14353435464324
 10
109.2280534234427
 20
95.1690711245505
 10
109.2242745843881
 20
95.19387581167797
 10
109.2181164762991
 20
95.21784075679332
 10
109.2097082902546
 20
95.24080447104805
 10
109.1992007491798
 20
95.26265929520983
 10
109.1866907463837
 20
95.28329757004636
 10
109.1723074729452
 20
95.30254704078592
 10
109.1561908858663
 20
95.32032158004262
 10
109.1384594103026
 20
95.33647046489124
 10
109.1192314714095
 20
95.35088603609944
 10
109.0986362602659
 20
95.36342833666518
 10
109.0768029679505
 20
95.37397894143295
 10
109.053850019619
 20
95.3823978934007
 10
109.0299173722734
 20
95.38856676741287
 10
109.0051234510692
 20
95.39236713831392
 10
108.9795866811619
 20
95.39365904910179
 10
108.9795866811619
 20
95.39365904910179
 10
108.9539853157152
 20
95.39236713831392
 10
108.9291375648948
 20
95.3885775333361
 10
108.9051403220098
 20
95.3823978934007
 10
108.8821550759086
 20
95.37396817550972
 10
108.8603002517468
 20
95.36342833666518
 10
108.8396727428335
 20
95.35089680202267
 10
108.8204125061707
 20
95.33647046489124
 10
108.8026594987605
 20
95.32032158004262
 10
108.7865213798351
 20
95.30254704078592
 10
108.7721381063966
 20
95.28328680412314
 10
108.7596173376773
 20
95.26267006113306
 10
108.7490990306792
 20
95.24080447104805
 10
108.7406908446347
 20
95.21784075679332
 10
108.734543502469
 20
95.1938865776012
 10
108.7307538974912
 20
95.1690711245505
 10
108.7294619867033
 20
95.14353435464324
  0
HATCH
  5
84
330
1F
100
AcDbEntity
  8
ISS138金台
  6
Continuous
 62
   250
420
  2367521
370
    13
100
AcDbHatch
 10
0.0
 20
0.0
 30
0.0
210
0.0
220
0.0
230
1.0
  2
SOLID
 70
     1
 71
     0
 91
        1
 92
        3
 72
     0
 73
     1
 93
       67
 10
123.0193733389307
 20
89.64552808277708
 10
123.0206544837953
 20
89.62000207879302
 10
123.0244440887731
 20
89.59520815758879
 10
123.0306129627853
 20
89.57129165912798
 10
123.0390103829066
 20
89.54836562560457
 10
123.0495286899046
 20
89.52655924809733
 10
123.0620494586239
 20
89.50599095176182
 10
123.0764327320624
 20
89.48680069360003
 10
123.0925708509878
 20
89.46909613284434
 10
123.1103346243213
 20
89.4530064605735
 10
123.1295840950608
 20
89.43866086786633
 10
123.1502008380509
 20
89.42617777987834
 10
123.1720771940592
 20
89.41568638768837
 10
123.1950624401604
 20
89.40731049941354
 10
123.2190381511989
 20
89.40117392317107
 10
123.2438966679426
 20
89.39740046707811
 10
123.2694980333892
 20
89.39611393925185
 10
123.2694980333892
 20
89.39611393925185
 10
123.2950348032965
 20
89.39740046707811
 10
123.319839490424
 20
89.40117930613269
 10
123.3437613718464
 20
89.40731049941354
 10
123.3667035542546
 20
89.41568638768837
 10
123.3885476124932
 20
89.42617777987834
 10
123.4091320577136
 20
89.43866086786633
 10
123.4283707625299
 20
89.4530064605735
 10
123.4461022380937
 20
89.46909074988272
 10
123.4622295910958
 20
89.48680069360003
 10
123.4766020986111
 20
89.50599095176182
 10
123.4891121014071
 20
89.52655924809733
 10
123.4996304084052
 20
89.54836562560457
 10
123.5080278285265
 20
89.57129165912798
 10
123.5141859366154
 20
89.59520815758879
 10
123.51796477567
 20
89.61999669583142
 10
123.5192566864579
 20
89.64552808277708
 10
123.5192566864579
 20
89.64552808277708
 10
123.51796477567
 20
89.6711832778399
 10
123.5141751706922
 20
89.69607947531485
 10
123.5080278285265
 20
89.72009286708473
 10
123.4996304084052
 20
89.7430996450324
 10
123.4891121014071
 20
89.76497600104065
 10
123.4766020986111
 20
89.78559812699233
 10
123.4622188251726
 20
89.80484221477026
 10
123.4461022380937
 20
89.82257907329566
 10
123.4283707625299
 20
89.83869566037457
 10
123.4091428236368
 20
89.85306816788983
 10
123.3885476124932
 20
89.86556202180105
 10
123.3667143201779
 20
89.87606417991427
 10
123.3437721377696
 20
89.8844454511507
 10
123.3198287245007
 20
89.89058741035478
 10
123.2950348032965
 20
89.89436086644774
 10
123.2694980333892
 20
89.89564739427402
 10
123.2694980333892
 20
89.89564739427402
 10
123.2439074338658
 20
89.89436624940936
 10
123.2190489171222
 20
89.8905927933164
 10
123.1950624401604
 20
89.8844454511507
 10
123.1720771940592
 20
89.87606417991427
 10
123.1502008380509
 20
89.86556202180105
 10
123.1295840950608
 20
89.85306816788983
 10
123.1103346243213
 20
89.83870104333619
 10
123.0925708509878
 20
89.82257907329566
 10
123.0764434979857
 20
89.80483683180864
 10
123.0620494586239
 20
89.78559274403071
 10
123.0495286899046
 20
89.76497600104065
 10
123.0390103829066
 20
89.7430996450324
 10
123.0306021968621
 20
89.72009286708473
 10
123.0244440887731
 20
89.69607947531485
 10
123.0206652497185
 20
89.6711832778399
 97
        0
 75
     1
 76
     1
 98
        0
  0
LWPOLYLINE
  5
85
330
1F
100
AcDbEntity
  8
ISS138金台
  6
Continuous
 62
   250
420
  2367521
370
    13
100
AcDbPolyline
 90
       68
 70
     0
 43
0.0
 10
123.0193733389307
 20
89.64552808277708
 10
123.0206544837953
 20
89.62000207879302
 10
123.0244440887731
 20
89.59520815758879
 10
123.0306129627853
 20
89.57129165912798
 10
123.0390103829066
 20
89.54836562560457
 10
123.0495286899046
 20
89.52655924809733
 10
123.0620494586239
 20
89.50599095176182
 10
123.0764327320624
 20
89.48680069360003
 10
123.0925708509878
 20
89.46909613284434
 10
123.1103346243213
 20
89.4530064605735
 10
123.1295840950608
 20
89.43866086786633
 10
123.1502008380509
 20
89.42617777987834
 10
123.1720771940592
 20
89.41568638768837
 10
123.1950624401604
 20
89.40731049941354
 10
123.2190381511989
 20
89.40117392317107
 10
123.2438966679426
 20
89.39740046707811
 10
123.2694980333892
 20
89.39611393925185
 10
123.2694980333892
 20
89.39611393925185
 10
123.2950348032965
 20
89.39740046707811
 10
123.319839490424
 20
89.40117930613269
 10
123.3437613718464
 20
89.40731049941354
 10
123.3667035542546
 20
89.41568638768837
 10
123.3885476124932
 20
89.42617777987834
 10
123.4091320577136
 20
89.43866086786633
 10
123.4283707625299
 20
89.4530064605735
 10
123.4461022380937
 20
89.46909074988272
 10
123.4622295910958
 20
89.48680069360003
 10
123.4766020986111
 20
89.50599095176182
 10
123.4891121014071
 20
89.52655924809733
 10
123.4996304084052
 20
89.54836562560457
 10
123.5080278285265
 20
89.57129165912798
 10
123.5141859366154
 20
89.59520815758879
 10
123.51796477567
 20
89.61999669583142
 10
123.5192566864579
 20
89.64552808277708
 10
123.5192566864579
 20
89.64552808277708
 10
123.51796477567
 20
89.6711832778399
 10
123.5141751706922
 20
89.69607947531485
 10
123.5080278285265
 20
89.72009286708473
 10
123.4996304084052
 20
89.7430996450324
 10
123.4891121014071
 20
89.76497600104065
 10
123.4766020986111
 20
89.78559812699233
 10
123.4622188251726
 20
89.80484221477026
 10
123.4461022380937
 20
89.82257907329566
 10
123.4283707625299
 20
89.83869566037457
 10
123.4091428236368
 20
89.85306816788983
 10
123.3885476124932
 20
89.86556202180105
 10
123.3667143201779
 20
89.87606417991427
 10
123.3437721377696
 20
89.8844454511507
 10
123.3198287245007
 20
89.89058741035478
 10
123.2950348032965
 20
89.89436086644774
 10
123.2694980333892
 20
89.89564739427402
 10
123.2694980333892
 20
89.89564739427402
 10
123.2439074338658
 20
89.89436624940936
 10
123.2190489171222
 20
89.8905927933164
 10
123.1950624401604
 20
89.8844454511507
 10
123.1720771940592
 20
89.87606417991427
 10
123.1502008380509
 20
89.86556202180105
 10
123.1295840950608
 20
89.85306816788983
 10
123.1103346243213
 20
89.83870104333619
 10
123.0925708509878
 20
89.82257907329566
 10
123.0764434979857
 20
89.80483683180864
 10
123.0620494586239
 20
89.78559274403071
 10
123.0495286899046
 20
89.76497600104065
 10
123.0390103829066
 20
89.7430996450324
 10
123.0306021968621
 20
89.72009286708473
 10
123.0244440887731
 20
89.69607947531485
 10
123.0206652497185
 20
89.6711832778399
 10
123.0193733389307
 20
89.64552808277708
  0
TEXT
  5
86
330
1F
100
AcDbEntity
  8
ISS138金台
  6
Continuous
 62
   250
420
  2367521
100
AcDbText
 10
124.7691480759709
 20
89.18356558971504
 30
0.0
 40
2.150533301035563
  1
3
 41
0.8120040893554685
  7
MS Gothic
100
AcDbText
  0
TEXT
  5
87
330
1F
100
AcDbEntity
  8
ISS138金台
  6
Continuous
 62
   250
420
  2367521
100
AcDbText
 10
121.2441910230619
 20
123.5102596474763
 30
0.0
 40
2.150533301035563
  1
5
 41
0.8079986572265625
  7
MS Gothic
100
AcDbText
  0
TEXT
  5
88
330
1F
100
AcDbEntity
  8
ISS138金台
  6
Continuous
 62
   250
420
  2367521
100
AcDbText
 10
130.2002946917231
 20
112.7947714751759
 30
0.0
 40
2.150533301035563
  1
7
 50
90.00000250447816
 41
1.024999618530273
  7
MS Gothic
100
AcDbText
  0
TEXT
  5
89
330
1F
100
AcDbEntity
  8
ISS138金台
  6
Continuous
 62
   250
420
  2367521
100
AcDbText
 10
107.8172512724574
 20
104.6949968335031
 30
0.0
 40
2.150533301035563
  1
22
 50
90.00000250447816
 41
0.9280014038085936
  7
MS Gothic
100
AcDbText
  0
LINE
  5
8A
330
1F
100
AcDbEntity
  8
ISS138金台
  6
Continuous
 62
   250
420
  2367521
370
    13
100
AcDbLine
 10
120.5173512478723
 20
89.64552808277708
 30
0.0
 11
124.1668377348105
 21
89.64552808277708
 31
0.0
  0
LINE
  5
8B
330
1F
100
AcDbEntity
  8
ISS138金台
  6
Continuous
 62
   250
420
  2367521
370
    13
100
AcDbLine
 10
124.4166825152651
 20
118.1436804935907
 30
0.0
 11
124.4166825152651
 21
123.1488873954165
 31
0.0
  0
LINE
  5
8C
330
1F
100
AcDbEntity
  8
ISS138金台
  6
Continuous
 62
   250
420
  2367521
370
    13
100
AcDbLine
 10
119.4169985320574
 20
118.1436804935907
 30
0.0
 11
119.4169985320574
 21
123.1488873954165
 31
0.0
  0
HATCH
  5
8D
330
1F
100
AcDbEntity
  8
ISS138金台
  6
Continuous
 62
   250
420
  2367521
370
    13
100
AcDbHatch
 10
0.0
 20
0.0
 30
0.0
210
0.0
220
0.0
230
1.0
  2
SOLID
 70
     1
 71
     0
 91
        1
 92
        3
 72
     0
 73
     1
 93
       67
 10
119.1668846035221
 20
122.6416078586287
 10
119.16817651431
 20
122.6671553944592
 10
119.1719553533646
 20
122.6919493156634
 10
119.1781134614535
 20
122.7159142607787
 10
119.186521647498
 20
122.7388887409567
 10
119.1970399544961
 20
122.7607435651185
 10
119.2095499572921
 20
122.7813710740318
 10
119.2239439966539
 20
122.8006313106946
 10
119.2400821155792
 20
122.8183950840281
 10
119.2578458889127
 20
122.8345547347999
 10
119.2770953596523
 20
122.8489595400849
 10
119.2977121026423
 20
122.8615018406506
 10
119.3195776927274
 20
122.8720416794952
 10
119.3425737047518
 20
122.8804713973861
 10
119.3665601817136
 20
122.8866402713983
 10
119.391407932534
 20
122.8904406422993
 10
119.4170092979807
 20
122.8917325530872
 10
119.4170092979807
 20
122.8917325530872
 10
119.4425568338112
 20
122.8904298763761
 10
119.4673507550154
 20
122.8866402713983
 10
119.491283402361
 20
122.8804606314629
 10
119.5142255847693
 20
122.8720416794952
 10
119.5360588770846
 20
122.8615126065739
 10
119.5566540882282
 20
122.8489595400849
 10
119.5758712611981
 20
122.8345439688767
 10
119.5936135026851
 20
122.8183950840281
 10
119.6097408556873
 20
122.8006313106946
 10
119.6241133632025
 20
122.7813603081086
 10
119.6366233659986
 20
122.7607435651185
 10
119.6471416729967
 20
122.7388779750335
 10
119.6555390931179
 20
122.7159034948555
 10
119.6616972012068
 20
122.6919600815866
 10
119.6654760402614
 20
122.6671446285359
 10
119.6667679510493
 20
122.6416078586287
 10
119.6667679510493
 20
122.6416078586287
 10
119.6654868061847
 20
122.6160603227981
 10
119.6616864352836
 20
122.5912556356707
 10
119.6555390931179
 20
122.5673014564786
 10
119.6471416729967
 20
122.5443269763006
 10
119.6366233659986
 20
122.5224721521388
 10
119.6241025972793
 20
122.5018446432255
 10
119.609730089764
 20
122.482595172486
 10
119.5936135026851
 20
122.4648206332293
 10
119.5758820271213
 20
122.4486717483806
 10
119.556643322305
 20
122.4342561771725
 10
119.5360588770846
 20
122.4217138766067
 10
119.5142255847693
 20
122.4111740377622
 10
119.4912726364378
 20
122.4027443198712
 10
119.4673399890922
 20
122.396575445859
 10
119.4425460678879
 20
122.392775074958
 10
119.4170092979807
 20
122.3914831641701
 10
119.4170092979807
 20
122.3914831641701
 10
119.3914186984572
 20
122.392775074958
 10
119.3665601817136
 20
122.396575445859
 10
119.3425737047518
 20
122.4027443198712
 10
119.3195884586506
 20
122.4111740377622
 10
119.2977121026423
 20
122.4217246425299
 10
119.2770953596523
 20
122.4342561771725
 10
119.2578458889127
 20
122.4486609824574
 10
119.2400821155792
 20
122.4648206332293
 10
119.2239547625771
 20
122.482595172486
 10
119.2095607232154
 20
122.5018554091487
 10
119.1970399544961
 20
122.5224721521388
 10
119.186521647498
 20
122.5443377422238
 10
119.1781134614535
 20
122.5673014564786
 10
119.1719553533646
 20
122.5912556356707
 10
119.16817651431
 20
122.6160710887214
 97
        0
 75
     1
 76
     1
 98
        0
  0
LWPOLYLINE
  5
8E
330
1F
100
AcDbEntity
  8
ISS138金台
  6
Continuous
 62
   250
420
  2367521
370
    13
100
AcDbPolyline
 90
       68
 70
     0
 43
0.0
 10
119.1668846035221
 20
122.6416078586287
 10
119.16817651431
 20
122.6671553944592
 10
119.1719553533646
 20
122.6919493156634
 10
119.1781134614535
 20
122.7159142607787
 10
119.186521647498
 20
122.7388887409567
 10
119.1970399544961
 20
122.7607435651185
 10
119.2095499572921
 20
122.7813710740318
 10
119.2239439966539
 20
122.8006313106946
 10
119.2400821155792
 20
122.8183950840281
 10
119.2578458889127
 20
122.8345547347999
 10
119.2770953596523
 20
122.8489595400849
 10
119.2977121026423
 20
122.8615018406506
 10
119.3195776927274
 20
122.8720416794952
 10
119.3425737047518
 20
122.8804713973861
 10
119.3665601817136
 20
122.8866402713983
 10
119.391407932534
 20
122.8904406422993
 10
119.4170092979807
 20
122.8917325530872
 10
119.4170092979807
 20
122.8917325530872
 10
119.4425568338112
 20
122.8904298763761
 10
119.4673507550154
 20
122.8866402713983
 10
119.491283402361
 20
122.8804606314629
 10
119.5142255847693
 20
122.8720416794952
 10
119.5360588770846
 20
122.8615126065739
 10
119.5566540882282
 20
122.8489595400849
 10
119.5758712611981
 20
122.8345439688767
 10
119.5936135026851
 20
122.8183950840281
 10
119.6097408556873
 20
122.8006313106946
 10
119.6241133632025
 20
122.7813603081086
 10
119.6366233659986
 20
122.7607435651185
 10
119.6471416729967
 20
122.7388779750335
 10
119.6555390931179
 20
122.7159034948555
 10
119.6616972012068
 20
122.6919600815866
 10
119.6654760402614
 20
122.6671446285359
 10
119.6667679510493
 20
122.6416078586287
 10
119.6667679510493
 20
122.6416078586287
 10
119.6654868061847
 20
122.6160603227981
 10
119.6616864352836
 20
122.5912556356707
 10
119.6555390931179
 20
122.5673014564786
 10
119.6471416729967
 20
122.5443269763006
 10
119.6366233659986
 20
122.5224721521388
 10
119.6241025972793
 20
122.5018446432255
 10
119.609730089764
 20
122.482595172486
 10
119.5936135026851
 20
122.4648206332293
 10
119.5758820271213
 20
122.4486717483806
 10
119.556643322305
 20
122.4342561771725
 10
119.5360588770846
 20
122.4217138766067
 10
119.5142255847693
 20
122.4111740377622
 10
119.4912726364378
 20
122.4027443198712
 10
119.4673399890922
 20
122.396575445859
 10
119.4425460678879
 20
122.392775074958
 10
119.4170092979807
 20
122.3914831641701
 10
119.4170092979807
 20
122.3914831641701
 10
119.3914186984572
 20
122.392775074958
 10
119.3665601817136
 20
122.396575445859
 10
119.3425737047518
 20
122.4027443198712
 10
119.3195884586506
 20
122.4111740377622
 10
119.2977121026423
 20
122.4217246425299
 10
119.2770953596523
 20
122.4342561771725
 10
119.2578458889127
 20
122.4486609824574
 10
119.2400821155792
 20
122.4648206332293
 10
119.2239547625771
 20
122.482595172486
 10
119.2095607232154
 20
122.5018554091487
 10
119.1970399544961
 20
122.5224721521388
 10
119.186521647498
 20
122.5443377422238
 10
119.1781134614535
 20
122.5673014564786
 10
119.1719553533646
 20
122.5912556356707
 10
119.16817651431
 20
122.6160710887214
 10
119.1668846035221
 20
122.6416078586287
  0
HATCH
  5
8F
330
1F
100
AcDbEntity
  8
ISS138金台
  6
Continuous
 62
   250
420
  2367521
370
    13
100
AcDbHatch
 10
0.0
 20
0.0
 30
0.0
210
0.0
220
0.0
230
1.0
  2
SOLID
 70
     1
 71
     0
 91
        1
 92
        3
 72
     0
 73
     1
 93
       67
 10
124.1669130962732
 20
122.6416078586287
 10
124.168205007061
 20
122.6671446285359
 10
124.1719838461156
 20
122.6919277838169
 10
124.1781419542046
 20
122.7158496652394
 10
124.1865501402491
 20
122.7387595498779
 10
124.1970684472471
 20
122.76058207627
 10
124.2095892159664
 20
122.7811342237207
 10
124.2239832553282
 20
122.8003298648441
 10
124.2401106083303
 20
122.8180398085614
 10
124.2578636157406
 20
122.8341240978706
 10
124.2771238524033
 20
122.8484750735394
 10
124.2977405953934
 20
122.860963544489
 10
124.3196061854784
 20
122.8714495537174
 10
124.3426021975029
 20
122.8798254419922
 10
124.3665886744647
 20
122.8859620182347
 10
124.3914364252851
 20
122.8897408572892
 10
124.4170377907317
 20
122.8910220021539
 10
124.4170377907317
 20
122.8910220021539
 10
124.442574560639
 20
122.8897408572892
 10
124.4673792477665
 20
122.8859620182347
 10
124.4913011291889
 20
122.8798146760689
 10
124.5142648434436
 20
122.8714387877941
 10
124.5360873698357
 20
122.860963544489
 10
124.5566718150561
 20
122.8484643076162
 10
124.5759105198724
 20
122.8341240978706
 10
124.5936419954362
 20
122.8180398085614
 10
124.6097585825151
 20
122.8003406307673
 10
124.6241418559536
 20
122.7811342237207
 10
124.6366518587496
 20
122.7605713103468
 10
124.6471701657477
 20
122.7387703158011
 10
124.655567585869
 20
122.7158388993161
 10
124.6617256939579
 20
122.6919277838169
 10
124.6655045330125
 20
122.6671446285359
 10
124.6667964438004
 20
122.6416078586287
 10
124.6667964438004
 20
122.6416078586287
 10
124.6654937670893
 20
122.6159526635658
 10
124.6617149280347
 20
122.5910618490525
 10
124.6555568199458
 20
122.567043074321
 10
124.6471701657477
 20
122.5440255304501
 10
124.6366518587496
 20
122.5221599403651
 10
124.6241418559536
 20
122.5015324314518
 10
124.6097693484383
 20
122.4822937266355
 10
124.5936419954362
 20
122.4645622510717
 10
124.5758997539492
 20
122.4484348980695
 10
124.5566825809793
 20
122.4340623905543
 10
124.5360873698357
 20
122.4215739196047
 10
124.5142540775204
 20
122.4110663785298
 10
124.4913011291889
 20
122.4026797243318
 10
124.4673684818433
 20
122.3965431480893
 10
124.442574560639
 20
122.3927643090347
 10
124.4170377907317
 20
122.3914831641701
 10
124.4170377907317
 20
122.3914831641701
 10
124.3914364252851
 20
122.3927643090347
 10
124.3665886744647
 20
122.3965431480893
 10
124.3426021975029
 20
122.4026797243318
 10
124.3196061854784
 20
122.4110663785298
 10
124.2977405953934
 20
122.4215846855279
 10
124.2771238524033
 20
122.4340623905543
 10
124.2578743816638
 20
122.4484348980695
 10
124.2401213742535
 20
122.4645514851484
 10
124.2239724894049
 20
122.4823044925587
 10
124.2095892159664
 20
122.501543197375
 10
124.1970684472471
 20
122.5221599403651
 10
124.1865501402491
 20
122.5440362963733
 10
124.1781419542046
 20
122.567043074321
 10
124.1719838461156
 20
122.5910510831293
 10
124.168205007061
 20
122.6159526635658
 97
        0
 75
     1
 76
     1
 98
        0
  0
LWPOLYLINE
  5
90
330
1F
100
AcDbEntity
  8
ISS138金台
  6
Continuous
 62
   250
420
  2367521
370
    13
100
AcDbPolyline
 90
       68
 70
     0
 43
0.0
 10
124.1669130962732
 20
122.6416078586287
 10
124.168205007061
 20
122.6671446285359
 10
124.1719838461156
 20
122.6919277838169
 10
124.1781419542046
 20
122.7158496652394
 10
124.1865501402491
 20
122.7387595498779
 10
124.1970684472471
 20
122.76058207627
 10
124.2095892159664
 20
122.7811342237207
 10
124.2239832553282
 20
122.8003298648441
 10
124.2401106083303
 20
122.8180398085614
 10
124.2578636157406
 20
122.8341240978706
 10
124.2771238524033
 20
122.8484750735394
 10
124.2977405953934
 20
122.860963544489
 10
124.3196061854784
 20
122.8714495537174
 10
124.3426021975029
 20
122.8798254419922
 10
124.3665886744647
 20
122.8859620182347
 10
124.3914364252851
 20
122.8897408572892
 10
124.4170377907317
 20
122.8910220021539
 10
124.4170377907317
 20
122.8910220021539
 10
124.442574560639
 20
122.8897408572892
 10
124.4673792477665
 20
122.8859620182347
 10
124.4913011291889
 20
122.8798146760689
 10
124.5142648434436
 20
122.8714387877941
 10
124.5360873698357
 20
122.860963544489
 10
124.5566718150561
 20
122.8484643076162
 10
124.5759105198724
 20
122.8341240978706
 10
124.5936419954362
 20
122.8180398085614
 10
124.6097585825151
 20
122.8003406307673
 10
124.6241418559536
 20
122.7811342237207
 10
124.6366518587496
 20
122.7605713103468
 10
124.6471701657477
 20
122.7387703158011
 10
124.655567585869
 20
122.7158388993161
 10
124.6617256939579
 20
122.6919277838169
 10
124.6655045330125
 20
122.6671446285359
 10
124.6667964438004
 20
122.6416078586287
 10
124.6667964438004
 20
122.6416078586287
 10
124.6654937670893
 20
122.6159526635658
 10
124.6617149280347
 20
122.5910618490525
 10
124.6555568199458
 20
122.567043074321
 10
124.6471701657477
 20
122.5440255304501
 10
124.6366518587496
 20
122.5221599403651
 10
124.6241418559536
 20
122.5015324314518
 10
124.6097693484383
 20
122.4822937266355
 10
124.5936419954362
 20
122.4645622510717
 10
124.5758997539492
 20
122.4484348980695
 10
124.5566825809793
 20
122.4340623905543
 10
124.5360873698357
 20
122.4215739196047
 10
124.5142540775204
 20
122.4110663785298
 10
124.4913011291889
 20
122.4026797243318
 10
124.4673684818433
 20
122.3965431480893
 10
124.442574560639
 20
122.3927643090347
 10
124.4170377907317
 20
122.3914831641701
 10
124.4170377907317
 20
122.3914831641701
 10
124.3914364252851
 20
122.3927643090347
 10
124.3665886744647
 20
122.3965431480893
 10
124.3426021975029
 20
122.4026797243318
 10
124.3196061854784
 20
122.4110663785298
 10
124.2977405953934
 20
122.4215846855279
 10
124.2771238524033
 20
122.4340623905543
 10
124.2578743816638
 20
122.4484348980695
 10
124.2401213742535
 20
122.4645514851484
 10
124.2239724894049
 20
122.4823044925587
 10
124.2095892159664
 20
122.501543197375
 10
124.1970684472471
 20
122.5221599403651
 10
124.1865501402491
 20
122.5440362963733
 10
124.1781419542046
 20
122.567043074321
 10
124.1719838461156
 20
122.5910510831293
 10
124.168205007061
 20
122.6159526635658
 10
124.1669130962732
 20
122.6416078586287
  0
LINE
  5
91
330
1F
100
AcDbEntity
  8
ISS138金台
  6
Continuous
 62
   250
420
  2367521
370
    13
100
AcDbLine
 10
119.4169985320574
 20
122.6416078586287
 30
0.0
 11
124.4165640901095
 21
122.6416078586287
 31
0.0
  0
LINE
  5
92
330
1F
100
AcDbEntity
  8
ISS138金台
  6
UserDefined01
 62
   140
420
    44526
370
    13
100
AcDbLine
 10
113.4445918529552
 20
102.1436345336648
 30
0.0
 11
113.4445918529552
 21
95.14346975910384
 31
0.0
  0
TEXT
  5
93
330
1F
100
AcDbEntity
  8
ISS138金台
  6
Continuous
 62
   140
420
    44526
100
AcDbText
 10
112.5179363703172
 20
98.01001522966843
 30
0.0
 40
1.881716638406118
  1
7
 50
90.00000250447816
 41
1.025009155273438
  7
MS Gothic
100
AcDbText
  0
HATCH
  5
94
330
1F
100
AcDbEntity
  8
ISS138金台
  6
Continuous
 62
   140
420
    44526
370
    50
100
AcDbHatch
 10
0.0
 20
0.0
 30
0.0
210
0.0
220
0.0
230
1.0
  2
SOLID
 70
     1
 71
     0
 91
        1
 92
        3
 72
     0
 73
     1
 93
        3
 10
124.415659752558
 20
103.0097315258657
 10
124.4149492016247
 20
101.2775913710801
 10
122.9167094949864
 20
102.1426010050345
 97
        0
 75
     1
 76
     1
 98
        0
  0
LWPOLYLINE
  5
95
330
1F
100
AcDbEntity
  8
ISS138金台
  6
Continuous
 62
   140
420
    44526
370
    50
100
AcDbPolyline
 90
        4
 70
     0
 43
0.0
 10
124.415659752558
 20
103.0097315258657
 10
124.4149492016247
 20
101.2775913710801
 10
122.9167094949864
 20
102.1426010050345
 10
124.415659752558
 20
103.0097315258657
  0
LINE
  5
96
330
1F
100
AcDbEntity
  8
ISS138金台
  6
Continuous
 62
   250
420
  2367521
370
    13
100
AcDbLine
 10
119.1319276507865
 20
116.2474999665129
 30
0.0
 11
114.8446140419441
 21
116.2474999665129
 31
0.0
  0
LINE
  5
97
330
1F
100
AcDbEntity
  8
ISS138金台
  6
Continuous
 62
   250
420
  2367521
370
    13
100
AcDbLine
 10
118.6664629598333
 20
100.247454006587
 30
0.0
 11
114.8448185944855
 21
100.247454006587
 31
0.0
  0
LINE
  5
98
330
1F
100
AcDbEntity
  8
ISS138金台
  6
Continuous
 62
   250
420
  2367521
370
    13
100
AcDbLine
 10
114.8445063827118
 20
100.247454006587
 30
0.0
 11
114.8445063827118
 21
116.2473384776644
 31
0.0
  0
HATCH
  5
99
330
1F
100
AcDbEntity
  8
ISS138金台
  6
Continuous
 62
   250
420
  2367521
370
    13
100
AcDbHatch
 10
0.0
 20
0.0
 30
0.0
210
0.0
220
0.0
230
1.0
  2
SOLID
 70
     1
 71
     0
 91
        1
 92
        3
 72
     0
 73
     1
 93
       67
 10
114.5947046659502
 20
116.2473277117412
 10
114.5959858108149
 20
116.2217909418339
 10
114.5997861817159
 20
116.1969970206297
 10
114.6059335238816
 20
116.1730536073608
 10
114.6143309440029
 20
116.1501221908758
 10
114.624849251001
 20
116.1282781326372
 10
114.637359253797
 20
116.1076829214936
 10
114.6517425272355
 20
116.0884549826005
 10
114.6678591143144
 20
116.0707235070367
 10
114.6856013558014
 20
116.0545853881114
 10
114.7048292946945
 20
116.0402128805961
 10
114.7254245058381
 20
116.0277028778
 10
114.7472470322302
 20
116.017184570802
 10
114.7701999805617
 20
116.0087871506807
 10
114.7941326279073
 20
116.0026290425918
 10
114.8189373150348
 20
115.9988502035372
 10
114.8444740849421
 20
115.9975582927493
 10
114.8444740849421
 20
115.9975582927493
 10
114.8700754503888
 20
115.9988394376139
 10
114.8949232012092
 20
116.0026290425918
 10
114.918909678171
 20
116.0087871506807
 10
114.9418949242722
 20
116.017184570802
 10
114.9637605143572
 20
116.0277028778
 10
114.9843880232705
 20
116.0402236465193
 10
115.00363749401
 20
116.0545961540346
 10
115.0213905014203
 20
116.0707235070367
 10
115.0375286203457
 20
116.0884549826005
 10
115.0519118937842
 20
116.1076829214936
 10
115.0644326625034
 20
116.1282781326372
 10
115.0749509695015
 20
116.1501114249525
 10
115.083359155546
 20
116.1730536073608
 10
115.089517263635
 20
116.1969970206297
 10
115.0932961026895
 20
116.2217909418339
 10
115.0945880134774
 20
116.2473277117412
 10
115.0945880134774
 20
116.2473277117412
 10
115.0932961026895
 20
116.2729290771879
 10
115.089517263635
 20
116.2977875939315
 10
115.083359155546
 20
116.3217633049701
 10
115.0749509695015
 20
116.3447485510712
 10
115.0644326625034
 20
116.3666141411563
 10
115.0519118937842
 20
116.3872416500696
 10
115.0375286203457
 20
116.4064911208091
 10
115.0213905014203
 20
116.4242441282194
 10
115.00363749401
 20
116.440393013068
 10
114.9843880232705
 20
116.4547762865065
 10
114.9637605143572
 20
116.4672862893025
 10
114.9418949242722
 20
116.4778153622238
 10
114.918909678171
 20
116.4862127823451
 10
114.8949232012092
 20
116.4923816563573
 10
114.8700754503888
 20
116.4961604954119
 10
114.8444740849421
 20
116.4974524061997
 10
114.8444740849421
 20
116.4974524061997
 10
114.8189480809581
 20
116.4961604954119
 10
114.7941326279073
 20
116.4923708904341
 10
114.7701999805617
 20
116.4862235482684
 10
114.7472470322302
 20
116.4778153622238
 10
114.7254137399149
 20
116.4672970552258
 10
114.7048292946945
 20
116.4547762865065
 10
114.6855905898782
 20
116.4403822471447
 10
114.6678591143144
 20
116.4242441282194
 10
114.6517425272355
 20
116.4064911208091
 10
114.637359253797
 20
116.3872416500696
 10
114.624849251001
 20
116.3666141411563
 10
114.6143309440029
 20
116.3447485510712
 10
114.6059335238816
 20
116.3217633049701
 10
114.5997754157927
 20
116.2977768280083
 10
114.5959965767381
 20
116.2729290771879
 97
        0
 75
     1
 76
     1
 98
        0
  0
LWPOLYLINE
  5
9A
330
1F
100
AcDbEntity
  8
ISS138金台
  6
Continuous
 62
   250
420
  2367521
370
    13
100
AcDbPolyline
 90
       68
 70
     0
 43
0.0
 10
114.5947046659502
 20
116.2473277117412
 10
114.5959858108149
 20
116.2217909418339
 10
114.5997861817159
 20
116.1969970206297
 10
114.6059335238816
 20
116.1730536073608
 10
114.6143309440029
 20
116.1501221908758
 10
114.624849251001
 20
116.1282781326372
 10
114.637359253797
 20
116.1076829214936
 10
114.6517425272355
 20
116.0884549826005
 10
114.6678591143144
 20
116.0707235070367
 10
114.6856013558014
 20
116.0545853881114
 10
114.7048292946945
 20
116.0402128805961
 10
114.7254245058381
 20
116.0277028778
 10
114.7472470322302
 20
116.017184570802
 10
114.7701999805617
 20
116.0087871506807
 10
114.7941326279073
 20
116.0026290425918
 10
114.8189373150348
 20
115.9988502035372
 10
114.8444740849421
 20
115.9975582927493
 10
114.8444740849421
 20
115.9975582927493
 10
114.8700754503888
 20
115.9988394376139
 10
114.8949232012092
 20
116.0026290425918
 10
114.918909678171
 20
116.0087871506807
 10
114.9418949242722
 20
116.017184570802
 10
114.9637605143572
 20
116.0277028778
 10
114.9843880232705
 20
116.0402236465193
 10
115.00363749401
 20
116.0545961540346
 10
115.0213905014203
 20
116.0707235070367
 10
115.0375286203457
 20
116.0884549826005
 10
115.0519118937842
 20
116.1076829214936
 10
115.0644326625034
 20
116.1282781326372
 10
115.0749509695015
 20
116.1501114249525
 10
115.083359155546
 20
116.1730536073608
 10
115.089517263635
 20
116.1969970206297
 10
115.0932961026895
 20
116.2217909418339
 10
115.0945880134774
 20
116.2473277117412
 10
115.0945880134774
 20
116.2473277117412
 10
115.0932961026895
 20
116.2729290771879
 10
115.089517263635
 20
116.2977875939315
 10
115.083359155546
 20
116.3217633049701
 10
115.0749509695015
 20
116.3447485510712
 10
115.0644326625034
 20
116.3666141411563
 10
115.0519118937842
 20
116.3872416500696
 10
115.0375286203457
 20
116.4064911208091
 10
115.0213905014203
 20
116.4242441282194
 10
115.00363749401
 20
116.440393013068
 10
114.9843880232705
 20
116.4547762865065
 10
114.9637605143572
 20
116.4672862893025
 10
114.9418949242722
 20
116.4778153622238
 10
114.918909678171
 20
116.4862127823451
 10
114.8949232012092
 20
116.4923816563573
 10
114.8700754503888
 20
116.4961604954119
 10
114.8444740849421
 20
116.4974524061997
 10
114.8444740849421
 20
116.4974524061997
 10
114.8189480809581
 20
116.4961604954119
 10
114.7941326279073
 20
116.4923708904341
 10
114.7701999805617
 20
116.4862235482684
 10
114.7472470322302
 20
116.4778153622238
 10
114.7254137399149
 20
116.4672970552258
 10
114.7048292946945
 20
116.4547762865065
 10
114.6855905898782
 20
116.4403822471447
 10
114.6678591143144
 20
116.4242441282194
 10
114.6517425272355
 20
116.4064911208091
 10
114.637359253797
 20
116.3872416500696
 10
114.624849251001
 20
116.3666141411563
 10
114.6143309440029
 20
116.3447485510712
 10
114.6059335238816
 20
116.3217633049701
 10
114.5997754157927
 20
116.2977768280083
 10
114.5959965767381
 20
116.2729290771879
 10
114.5947046659502
 20
116.2473277117412
  0
HATCH
  5
9B
330
1F
100
AcDbEntity
  8
ISS138金台
  6
Continuous
 62
   250
420
  2367521
370
    13
100
AcDbHatch
 10
0.0
 20
0.0
 30
0.0
210
0.0
220
0.0
230
1.0
  2
SOLID
 70
     1
 71
     0
 91
        1
 92
        3
 72
     0
 73
     1
 93
       67
 10
114.5947046659502
 20
100.3659868213759
 10
114.5959858108149
 20
100.3404500514686
 10
114.5997861817159
 20
100.3156561302644
 10
114.6059335238816
 20
100.2917234829187
 10
114.6143309440029
 20
100.2687705345872
 10
114.624849251001
 20
100.2469372422719
 10
114.637359253797
 20
100.2263420311283
 10
114.6517425272355
 20
100.2071140922352
 10
114.6678591143144
 20
100.1893718507482
 10
114.6856013558014
 20
100.1732552636693
 10
114.7048292946945
 20
100.158882756154
 10
114.7254245058381
 20
100.1463619874347
 10
114.7472470322302
 20
100.1358436804367
 10
114.7701999805617
 20
100.1274462603154
 10
114.7941326279073
 20
100.1212881522264
 10
114.8189373150348
 20
100.1175093131719
 10
114.8444740849421
 20
100.116217402384
 10
114.8444740849421
 20
100.116217402384
 10
114.8700754503888
 20
100.1175093131719
 10
114.8949232012092
 20
100.1212881522264
 10
114.918909678171
 20
100.1274462603154
 10
114.9418949242722
 20
100.1358436804367
 10
114.9637605143572
 20
100.1463619874347
 10
114.9843880232705
 20
100.1588719902308
 10
115.00363749401
 20
100.1732660295925
 10
115.0213905014203
 20
100.1893718507482
 10
115.0375286203457
 20
100.2071140922352
 10
115.0519118937842
 20
100.2263420311283
 10
115.0644326625034
 20
100.2469372422719
 10
115.0749509695015
 20
100.2687705345872
 10
115.083359155546
 20
100.2917127169955
 10
115.089517263635
 20
100.3156561302644
 10
115.0932961026895
 20
100.3404500514686
 10
115.0945880134774
 20
100.3659868213759
 10
115.0945880134774
 20
100.3659868213759
 10
115.0932961026895
 20
100.3915881868225
 10
115.089517263635
 20
100.4164467035662
 10
115.083359155546
 20
100.440433180528
 10
115.0749509695015
 20
100.4634076607059
 10
115.0644326625034
 20
100.485273250791
 10
115.0519118937842
 20
100.5059007597043
 10
115.0375286203457
 20
100.5251502304438
 10
115.0213905014203
 20
100.5429032378541
 10
115.00363749401
 20
100.5590413567794
 10
114.9843880232705
 20
100.5734353961412
 10
114.9637605143572
 20
100.5859561648605
 10
114.9418949242722
 20
100.5964744718585
 10
114.918909678171
 20
100.604882657903
 10
114.8949232012092
 20
100.611040765992
 10
114.8700754503888
 20
100.6148196050466
 10
114.8444740849421
 20
100.6161115158344
 10
114.8444740849421
 20
100.6161115158344
 10
114.8189480809581
 20
100.6148303709698
 10
114.7941326279073
 20
100.611040765992
 10
114.7701999805617
 20
100.6048718919798
 10
114.7472470322302
 20
100.5964744718585
 10
114.7254137399149
 20
100.5859453989372
 10
114.7048292946945
 20
100.5734246302179
 10
114.6855905898782
 20
100.5590521227027
 10
114.6678591143144
 20
100.5429032378541
 10
114.6517425272355
 20
100.5251502304438
 10
114.637359253797
 20
100.5059007597043
 10
114.624849251001
 20
100.485273250791
 10
114.6143309440029
 20
100.4634076607059
 10
114.6059335238816
 20
100.4404224146048
 10
114.5997754157927
 20
100.4164359376429
 10
114.5959965767381
 20
100.3915881868225
 97
        0
 75
     1
 76
     1
 98
        0
  0
LWPOLYLINE
  5
9C
330
1F
100
AcDbEntity
  8
ISS138金台
  6
Continuous
 62
   250
420
  2367521
370
    13
100
AcDbPolyline
 90
       68
 70
     0
 43
0.0
 10
114.5947046659502
 20
100.3659868213759
 10
114.5959858108149
 20
100.3404500514686
 10
114.5997861817159
 20
100.3156561302644
 10
114.6059335238816
 20
100.2917234829187
 10
114.6143309440029
 20
100.2687705345872
 10
114.624849251001
 20
100.2469372422719
 10
114.637359253797
 20
100.2263420311283
 10
114.6517425272355
 20
100.2071140922352
 10
114.6678591143144
 20
100.1893718507482
 10
114.6856013558014
 20
100.1732552636693
 10
114.7048292946945
 20
100.158882756154
 10
114.7254245058381
 20
100.1463619874347
 10
114.7472470322302
 20
100.1358436804367
 10
114.7701999805617
 20
100.1274462603154
 10
114.7941326279073
 20
100.1212881522264
 10
114.8189373150348
 20
100.1175093131719
 10
114.8444740849421
 20
100.116217402384
 10
114.8444740849421
 20
100.116217402384
 10
114.8700754503888
 20
100.1175093131719
 10
114.8949232012092
 20
100.1212881522264
 10
114.918909678171
 20
100.1274462603154
 10
114.9418949242722
 20
100.1358436804367
 10
114.9637605143572
 20
100.1463619874347
 10
114.9843880232705
 20
100.1588719902308
 10
115.00363749401
 20
100.1732660295925
 10
115.0213905014203
 20
100.1893718507482
 10
115.0375286203457
 20
100.2071140922352
 10
115.0519118937842
 20
100.2263420311283
 10
115.0644326625034
 20
100.2469372422719
 10
115.0749509695015
 20
100.2687705345872
 10
115.083359155546
 20
100.2917127169955
 10
115.089517263635
 20
100.3156561302644
 10
115.0932961026895
 20
100.3404500514686
 10
115.0945880134774
 20
100.3659868213759
 10
115.0945880134774
 20
100.3659868213759
 10
115.0932961026895
 20
100.3915881868225
 10
115.089517263635
 20
100.4164467035662
 10
115.083359155546
 20
100.440433180528
 10
115.0749509695015
 20
100.4634076607059
 10
115.0644326625034
 20
100.485273250791
 10
115.0519118937842
 20
100.5059007597043
 10
115.0375286203457
 20
100.5251502304438
 10
115.0213905014203
 20
100.5429032378541
 10
115.00363749401
 20
100.5590413567794
 10
114.9843880232705
 20
100.5734353961412
 10
114.9637605143572
 20
100.5859561648605
 10
114.9418949242722
 20
100.5964744718585
 10
114.918909678171
 20
100.604882657903
 10
114.8949232012092
 20
100.611040765992
 10
114.8700754503888
 20
100.6148196050466
 10
114.8444740849421
 20
100.6161115158344
 10
114.8444740849421
 20
100.6161115158344
 10
114.8189480809581
 20
100.6148303709698
 10
114.7941326279073
 20
100.611040765992
 10
114.7701999805617
 20
100.6048718919798
 10
114.7472470322302
 20
100.5964744718585
 10
114.7254137399149
 20
100.5859453989372
 10
114.7048292946945
 20
100.5734246302179
 10
114.6855905898782
 20
100.5590521227027
 10
114.6678591143144
 20
100.5429032378541
 10
114.6517425272355
 20
100.5251502304438
 10
114.637359253797
 20
100.5059007597043
 10
114.624849251001
 20
100.485273250791
 10
114.6143309440029
 20
100.4634076607059
 10
114.6059335238816
 20
100.4404224146048
 10
114.5997754157927
 20
100.4164359376429
 10
114.5959965767381
 20
100.3915881868225
 10
114.5947046659502
 20
100.3659868213759
  0
TEXT
  5
9D
330
1F
100
AcDbEntity
  8
ISS138金台
  6
Continuous
 62
   250
420
  2367521
100
AcDbText
 10
113.7787305394788
 20
107.1703624986381
 30
0.0
 40
2.150533301035563
  1
16
 50
90.00000250447816
 41
1.000124931335449
  7
MS Gothic
100
AcDbText
  0
LINE
  5
9E
330
1F
100
AcDbEntity
  8
ISS138金台
  6
Continuous
 62
   140
420
    44526
370
    25
100
AcDbLine
 10
119.1319276507865
 20
100.247454006587
 30
0.0
 11
119.1319276507865
 21
116.2473384776644
 31
0.0
  0
ENDSEC
  0
SECTION
  2
OBJECTS
  0
DICTIONARY
  5
C
330
0
100
AcDbDictionary
281
     1
  3
ACAD_DETAILVIEWSTYLE
350
A6
  3
ACAD_GROUP
350
D
  3
ACAD_LAYOUT
350
1A
  3
ACAD_MATERIAL
350
43
  3
ACAD_MLEADERSTYLE
350
5B
  3
ACAD_MLINESTYLE
350
17
  3
ACAD_PLOTSETTINGS
350
19
  3
ACAD_PLOTSTYLENAME
350
E
  3
ACAD_SCALELIST
350
47
  3
ACAD_SECTIONVIEWSTYLE
350
A7
  3
ACAD_TABLESTYLE
350
59
  3
ACAD_VISUALSTYLE
350
2A
  3
ACDB_RECOMPOSE_DATA
350
A3
  3
AcDbVariableDictionary
350
9F
  0
SUN
  5
5D
330
29
100
AcDbSun
 90
        1
290
     0
 63
     7
421
 16777215
 40
1.0
291
     1
 91
  2455826
 92
 54000000
292
     0
 70
     2
 71
   256
280
     1
  0
DICTIONARY
  5
A6
102
{ACAD_REACTORS
330
C
102
}
330
C
100
AcDbDictionary
281
     1
  0
DICTIONARY
  5
D
102
{ACAD_REACTORS
330
C
102
}
330
C
100
AcDbDictionary
281
     1
  0
DICTIONARY
  5
1A
102
{ACAD_REACTORS
330
C
102
}
330
C
100
AcDbDictionary
281
     1
  3
Layout1
350
1E
  3
Layout2
350
26
  3
Model
350
22
  0
DICTIONARY
  5
43
102
{ACAD_REACTORS
330
C
102
}
330
C
100
AcDbDictionary
281
     1
  3
ByBlock
350
45
  3
ByLayer
350
44
  3
Global
350
46
  0
DICTIONARY
  5
5B
102
{ACAD_REACTORS
330
C
102
}
330
C
100
AcDbDictionary
281
     1
  3
Standard
350
5C
  0
DICTIONARY
  5
17
102
{ACAD_REACTORS
330
C
102
}
330
C
100
AcDbDictionary
281
     1
  3
Standard
350
18
  0
DICTIONARY
  5
19
102
{ACAD_REACTORS
330
C
102
}
330
C
100
AcDbDictionary
281
     1
  0
ACDBDICTIONARYWDFLT
  5
E
102
{ACAD_REACTORS
330
C
102
}
330
C
100
AcDbDictionary
281
     1
  3
Normal
350
F
100
AcDbDictionaryWithDefault
340
F
  0
DICTIONARY
  5
47
102
{ACAD_REACTORS
330
C
102
}
330
C
100
AcDbDictionary
281
     1
  3
A0
350
48
  3
A1
350
49
  3
A2
350
4A
  3
A3
350
4B
  3
A4
350
4C
  3
A5
350
4D
  3
A6
350
4E
  3
A7
350
4F
  3
A8
350
50
  3
A9
350
51
  3
B0
350
52
  3
B1
350
53
  3
B2
350
54
  3
B3
350
55
  3
B4
350
56
  3
B5
350
57
  3
B6
350
58
  0
DICTIONARY
  5
A7
102
{ACAD_REACTORS
330
C
102
}
330
C
100
AcDbDictionary
281
     1
  0
DICTIONARY
  5
59
102
{ACAD_REACTORS
330
C
102
}
330
C
100
AcDbDictionary
281
     1
  3
Standard
350
5A
  0
DICTIONARY
  5
2A
102
{ACAD_REACTORS
330
C
102
}
330
C
100
AcDbDictionary
281
     1
  3
2dWireframe
350
2F
  3
Basic
350
32
  3
Brighten
350
36
  3
ColorChange
350
3A
  3
Conceptual
350
34
  3
Dim
350
35
  3
EdgeColorOff
350
3D
  3
Facepattern
350
39
  3
Flat
350
2B
  3
FlatWithEdges
350
2C
  3
Gouraud
350
2D
  3
GouraudWithEdges
350
2E
  3
Hidden
350
31
  3
JitterOff
350
3B
  3
Linepattern
350
38
  3
OverhangOff
350
3C
  3
Realistic
350
33
  3
Shaded
350
42
  3
Shaded with edges
350
41
  3
Shades of Gray
350
3E
  3
Sketchy
350
3F
  3
Thicken
350
37
  3
Wireframe
350
30
  3
X-Ray
350
40
  0
XRECORD
  5
A3
102
{ACAD_REACTORS
330
C
102
}
330
C
100
AcDbXrecord
280
     1
 90
        1
330
5A
  0
DICTIONARY
  5
9F
102
{ACAD_REACTORS
330
C
102
}
330
C
100
AcDbDictionary
281
     1
  3
CANNOSCALE
350
A0
  3
CENTEREXE
350
A8
  3
CENTERLTYPEFILE
350
A9
  3
CMLEADERSTYLE
350
A5
  3
CTABLESTYLE
350
A4
  0
LAYOUT
  5
1E
102
{ACAD_REACTORS
330
1A
102
}
330
1A
100
AcDbPlotSettings
  1

  2
none_device
  4

  6

 40
0.0
 41
0.0
 42
0.0
 43
0.0
 44
0.0
 45
0.0
 46
0.0
 47
0.0
 48
0.0
 49
0.0
140
0.0
141
0.0
142
1.0
143
1.0
 70
   688
 72
     1
 73
     0
 74
     5
  7

 75
    16
 76
     0
 77
     5
 78
   300
147
1.0
148
0.0
149
0.0
100
AcDbLayout
  1
Layout1
 70
     1
 71
     1
 10
0.0
 20
0.0
 11
420.0
 21
297.0
 12
0.0
 22
0.0
 32
0.0
 14
1.000000000000000E+20
 24
1.000000000000000E+20
 34
1.000000000000000E+20
 15
-1.000000000000000E+20
 25
-1.000000000000000E+20
 35
-1.000000000000000E+20
146
0.0
 13
0.0
 23
0.0
 33
0.0
 16
1.0
 26
0.0
 36
0.0
 17
0.0
 27
1.0
 37
0.0
 76
     0
330
1B
  0
LAYOUT
  5
26
102
{ACAD_REACTORS
330
1A
102
}
330
1A
100
AcDbPlotSettings
  1

  2
none_device
  4

  6

 40
0.0
 41
0.0
 42
0.0
 43
0.0
 44
0.0
 45
0.0
 46
0.0
 47
0.0
 48
0.0
 49
0.0
140
0.0
141
0.0
142
1.0
143
1.0
 70
   688
 72
     1
 73
     0
 74
     5
  7

 75
    16
 76
     0
 77
     5
 78
   300
147
1.0
148
0.0
149
0.0
100
AcDbLayout
  1
Layout2
 70
     1
 71
     2
 10
0.0
 20
0.0
 11
0.0
 21
0.0
 12
0.0
 22
0.0
 32
0.0
 14
0.0
 24
0.0
 34
0.0
 15
0.0
 25
0.0
 35
0.0
146
0.0
 13
0.0
 23
0.0
 33
0.0
 16
1.0
 26
0.0
 36
0.0
 17
0.0
 27
1.0
 37
0.0
 76
     0
330
23
  0
LAYOUT
  5
22
102
{ACAD_REACTORS
330
1A
102
}
330
1A
100
AcDbPlotSettings
  1

  2
none_device
  4
Letter_(8.50_x_11.00_Inches)
  6

 40
6.35
 41
6.35
 42
6.35000508
 43
6.35000508
 44
215.9
 45
279.4
 46
0.0
 47
0.0
 48
0.0
 49
0.0
140
0.0
141
0.0
142
1.0
143
1.0
 70
  1712
 72
     1
 73
     0
 74
     0
  7

 75
     0
 76
     0
 77
     5
 78
   300
147
1.0
148
0.0
149
0.0
100
AcDbLayout
  1
Model
 70
     1
 71
     0
 10
0.0
 20
0.0
 11
302.9997823349792
 21
216.0016055409748
 12
0.0
 22
0.0
 32
0.0
 14
0.0
 24
0.0
 34
0.0
 15
302.9997823349792
 25
216.0016055409748
 35
0.0
146
0.0
 13
0.0
 23
0.0
 33
0.0
 16
1.0
 26
0.0
 36
0.0
 17
0.0
 27
1.0
 37
0.0
 76
     0
330
1F
331
29
  0
MATERIAL
  5
45
102
{ACAD_REACTORS
330
43
102
}
330
43
100
AcDbMaterial
  1
ByBlock
 72
     1
 94
      127
  0
MATERIAL
  5
44
102
{ACAD_REACTORS
330
43
102
}
330
43
100
AcDbMaterial
  1
ByLayer
 72
     1
 94
      127
  0
MATERIAL
  5
46
102
{ACAD_REACTORS
330
43
102
}
330
43
100
AcDbMaterial
  1
Global
 72
     1
 94
      127
  0
MLEADERSTYLE
  5
5C
102
{ACAD_REACTORS
330
5B
102
}
330
5B
100
AcDbMLeaderStyle
179
     2
170
     2
171
     1
172
     0
 90
        2
 40
0.0
 41
0.0
173
     1
 91
-1056964608
340
14
 92
       -2
290
     1
 42
2.0
291
     1
 43
8.0
  3
Standard
341
0
 44
4.0
300

342
11
174
     1
178
     6
175
     1
176
     0
 93
-1056964608
 45
4.0
292
     0
297
     0
 46
4.0
343
0
 94
-1056964608
 47
1.0
 49
1.0
140
1.0
293
     1
141
0.0
294
     1
177
     0
142
1.0
295
     0
296
     0
143
3.75
271
     0
272
     9
273
     9
298
     0
  0
MLINESTYLE
  5
18
102
{ACAD_REACTORS
330
17
102
}
330
17
100
AcDbMlineStyle
  2
Standard
 70
     0
  3

 62
   256
 51
90.0
 52
90.0
 71
     2
 49
0.5
 62
   256
  6
BYLAYER
 49
-0.5
 62
   256
  6
BYLAYER
  0
ACDBPLACEHOLDER
  5
F
102
{ACAD_REACTORS
330
E
102
}
330
E
  0
SCALE
  5
48
102
{ACAD_REACTORS
330
47
102
}
330
47
100
AcDbScale
 70
     0
300
1:1
140
1.0
141
1.0
290
     1
  0
SCALE
  5
49
102
{ACAD_REACTORS
330
47
102
}
330
47
100
AcDbScale
 70
     0
300
1:2
140
1.0
141
2.0
290
     0
  0
SCALE
  5
4A
102
{ACAD_REACTORS
330
47
102
}
330
47
100
AcDbScale
 70
     0
300
1:4
140
1.0
141
4.0
290
     0
  0
SCALE
  5
4B
102
{ACAD_REACTORS
330
47
102
}
330
47
100
AcDbScale
 70
     0
300
1:5
140
1.0
141
5.0
290
     0
  0
SCALE
  5
4C
102
{ACAD_REACTORS
330
47
102
}
330
47
100
AcDbScale
 70
     0
300
1:8
140
1.0
141
8.0
290
     0
  0
SCALE
  5
4D
102
{ACAD_REACTORS
330
47
102
}
330
47
100
AcDbScale
 70
     0
300
1:10
140
1.0
141
10.0
290
     0
  0
SCALE
  5
4E
102
{ACAD_REACTORS
330
47
102
}
330
47
100
AcDbScale
 70
     0
300
1:16
140
1.0
141
16.0
290
     0
  0
SCALE
  5
4F
102
{ACAD_REACTORS
330
47
102
}
330
47
100
AcDbScale
 70
     0
300
1:20
140
1.0
141
20.0
290
     0
  0
SCALE
  5
50
102
{ACAD_REACTORS
330
47
102
}
330
47
100
AcDbScale
 70
     0
300
1:30
140
1.0
141
30.0
290
     0
  0
SCALE
  5
51
102
{ACAD_REACTORS
330
47
102
}
330
47
100
AcDbScale
 70
     0
300
1:40
140
1.0
141
40.0
290
     0
  0
SCALE
  5
52
102
{ACAD_REACTORS
330
47
102
}
330
47
100
AcDbScale
 70
     0
300
1:50
140
1.0
141
50.0
290
     0
  0
SCALE
  5
53
102
{ACAD_REACTORS
330
47
102
}
330
47
100
AcDbScale
 70
     0
300
1:100
140
1.0
141
100.0
290
     0
  0
SCALE
  5
54
102
{ACAD_REACTORS
330
47
102
}
330
47
100
AcDbScale
 70
     0
300
2:1
140
2.0
141
1.0
290
     0
  0
SCALE
  5
55
102
{ACAD_REACTORS
330
47
102
}
330
47
100
AcDbScale
 70
     0
300
4:1
140
4.0
141
1.0
290
     0
  0
SCALE
  5
56
102
{ACAD_REACTORS
330
47
102
}
330
47
100
AcDbScale
 70
     0
300
8:1
140
8.0
141
1.0
290
     0
  0
SCALE
  5
57
102
{ACAD_REACTORS
330
47
102
}
330
47
100
AcDbScale
 70
     0
300
10:1
140
10.0
141
1.0
290
     0
  0
SCALE
  5
58
102
{ACAD_REACTORS
330
47
102
}
330
47
100
AcDbScale
 70
     0
300
100:1
140
100.0
141
1.0
290
     0
  0
TABLESTYLE
  5
5A
102
{ACAD_REACTORS
330
59
102
}
102
{ACAD_XDICTIONARY
360
A1
102
}
330
59
100
AcDbTableStyle
  3
Standard
 70
     0
 71
     0
 40
0.06
 41
0.06
280
     0
281
     0
  7
Standard
140
4.5
170
     2
 62
     0
 63
   257
283
     0
 90
        4
 91
        0
  1

274
    -2
284
     1
 64
     0
275
    -2
285
     1
 65
     0
276
    -2
286
     1
 66
     0
277
    -2
287
     1
 67
     0
278
    -2
288
     1
 68
     0
279
    -2
289
     1
 69
     0
  7
Standard
140
6.0
170
     5
 62
     0
 63
   257
283
     0
 90
        4
 91
        0
  1

274
    -2
284
     1
 64
     0
275
    -2
285
     1
 65
     0
276
    -2
286
     1
 66
     0
277
    -2
287
     1
 67
     0
278
    -2
288
     1
 68
     0
279
    -2
289
     1
 69
     0
  7
Standard
140
4.5
170
     5
 62
     0
 63
   257
283
     0
 90
        4
 91
        0
  1

274
    -2
284
     1
 64
     0
275
    -2
285
     1
 65
     0
276
    -2
286
     1
 66
     0
277
    -2
287
     1
 67
     0
278
    -2
288
     1
 68
     0
279
    -2
289
     1
 69
     0
  0
VISUALSTYLE
  5
2F
102
{ACAD_REACTORS
330
2A
102
}
330
2A
100
AcDbVisualStyle
  2
2dWireframe
 70
     4
177
     3
291
     0
 70
    58
 90
        0
176
     1
 90
        2
176
     1
 90
        0
176
     1
 90
        0
176
     1
 40
0.6
176
     1
 40
30.0
176
     1
 62
     7
420
 16777215
176
     1
 90
        1
176
     1
 90
        4
176
     1
 62
     7
176
     1
 62
   257
176
     1
 90
        1
176
     1
 90
        1
176
     1
 40
1.0
176
     1
 90
        0
176
     1
 62
   257
176
     1
 40
1.0
176
     1
 90
        1
176
     1
 90
        6
176
     1
 90
        2
176
     1
 62
     7
176
     1
 90
        5
176
     1
 90
        0
176
     1
 90
        0
176
     1
290
     0
176
     1
 90
        1
176
     1
 40
0.0
176
     1
 90
        0
176
     1
290
     1
176
     1
290
     1
176
     1
290
     0
176
     1
290
     0
176
     1
290
     0
176
     1
290
     0
176
     1
290
     0
176
     1
290
     0
176
     1
290
     0
176
     1
 90
       50
176
     1
 40
0.0
176
     1
 40
1.0
176
     1
 90
        0
176
     1
 62
    18
420
        0
176
     1
 90
       50
176
     1
 90
        3
176
     1
 62
     5
420
      255
176
     1
290
     0
176
     1
 90
       50
176
     1
 90
       50
176
     1
 90
       50
176
     1
290
     0
176
     1
 90
       50
176
     1
 62
   256
176
     0
 40
1.0
176
     0
 90
        2
176
     1
  1
strokes_ogs.tif
176
     1
290
     0
176
     1
 40
1.0
176
     1
 40
1.0
176
     1
  0
VISUALSTYLE
  5
32
102
{ACAD_REACTORS
330
2A
102
}
330
2A
100
AcDbVisualStyle
  2
Basic
 70
     7
177
     3
291
     1
 70
    58
 90
        1
176
     1
 90
        0
176
     1
 90
        1
176
     1
 90
        0
176
     1
 40
0.6
176
     1
 40
30.0
176
     1
 62
     7
420
 16777215
176
     1
 90
        0
176
     1
 90
        4
176
     1
 62
     7
176
     1
 62
   257
176
     1
 90
        1
176
     1
 90
        1
176
     1
 40
1.0
176
     1
 90
        8
176
     1
 62
     7
176
     1
 40
1.0
176
     1
 90
        1
176
     1
 90
        6
176
     1
 90
        2
176
     1
 62
     7
176
     1
 90
        5
176
     1
 90
        0
176
     1
 90
        0
176
     1
290
     0
176
     1
 90
        1
176
     1
 40
0.0
176
     1
 90
        0
176
     1
290
     0
176
     1
290
     1
176
     1
290
     1
176
     1
290
     0
176
     1
290
     0
176
     1
290
     0
176
     1
290
     0
176
     1
290
     0
176
     1
290
     0
176
     1
 90
       50
176
     1
 40
0.0
176
     1
 40
1.0
176
     1
 90
        0
176
     1
 62
    18
420
        0
176
     1
 90
       50
176
     1
 90
        3
176
     1
 62
     5
420
      255
176
     1
290
     0
176
     1
 90
       50
176
     1
 90
       50
176
     1
 90
       50
176
     1
290
     0
176
     1
 90
       50
176
     1
 62
   256
176
     0
 40
1.0
176
     0
 90
        2
176
     1
  1
strokes_ogs.tif
176
     1
290
     0
176
     1
 40
1.0
176
     1
 40
1.0
176
     1
  0
VISUALSTYLE
  5
36
102
{ACAD_REACTORS
330
2A
102
}
330
2A
100
AcDbVisualStyle
  2
Brighten
 70
    12
177
     3
291
     1
 70
    58
 90
        2
176
     1
 90
        2
176
     1
 90
        0
176
     1
 90
        0
176
     1
 40
0.6
176
     1
 40
30.0
176
     1
 62
     7
420
 16777215
176
     1
 90
        1
176
     1
 90
        4
176
     1
 62
     7
176
     1
 62
   257
176
     1
 90
        1
176
     1
 90
        1
176
     1
 40
1.0
176
     1
 90
        8
176
     1
 62
     7
176
     1
 40
1.0
176
     1
 90
        1
176
     1
 90
        6
176
     1
 90
        2
176
     1
 62
     7
176
     1
 90
        5
176
     1
 90
        0
176
     1
 90
        0
176
     1
290
     0
176
     1
 90
        1
176
     1
 40
50.0
176
     1
 90
        0
176
     1
290
     0
176
     1
290
     1
176
     1
290
     1
176
     1
290
     0
176
     1
290
     0
176
     1
290
     0
176
     1
290
     0
176
     1
290
     0
176
     1
290
     0
176
     1
 90
       50
176
     1
 40
0.0
176
     1
 40
1.0
176
     1
 90
        0
176
     1
 62
    18
420
        0
176
     1
 90
       50
176
     1
 90
        3
176
     1
 62
     5
420
      255
176
     1
290
     0
176
     1
 90
       50
176
     1
 90
       50
176
     1
 90
       50
176
     1
290
     0
176
     1
 90
       50
176
     1
 62
   256
176
     0
 40
1.0
176
     0
 90
        2
176
     1
  1
strokes_ogs.tif
176
     1
290
     0
176
     1
 40
1.0
176
     1
 40
1.0
176
     1
  0
VISUALSTYLE
  5
3A
102
{ACAD_REACTORS
330
2A
102
}
330
2A
100
AcDbVisualStyle
  2
ColorChange
 70
    16
177
     3
291
     1
 70
    58
 90
        2
176
     1
 90
        2
176
     1
 90
        3
176
     1
 90
        0
176
     1
 40
0.6
176
     1
 40
30.0
176
     1
 62
     8
420
  8421504
176
     1
 90
        1
176
     1
 90
        4
176
     1
 62
     7
176
     1
 62
   257
176
     1
 90
        1
176
     1
 90
        1
176
     1
 40
1.0
176
     1
 90
        8
176
     1
 62
     8
420
  8421504
176
     1
 40
1.0
176
     1
 90
        1
176
     1
 90
        6
176
     1
 90
        2
176
     1
 62
     7
176
     1
 90
        5
176
     1
 90
        0
176
     1
 90
        0
176
     1
290
     0
176
     1
 90
        1
176
     1
 40
0.0
176
     1
 90
        0
176
     1
290
     0
176
     1
290
     1
176
     1
290
     1
176
     1
290
     0
176
     1
290
     0
176
     1
290
     0
176
     1
290
     0
176
     1
290
     0
176
     1
290
     0
176
     1
 90
       50
176
     1
 40
0.0
176
     1
 40
1.0
176
     1
 90
        0
176
     1
 62
    18
420
        0
176
     1
 90
       50
176
     1
 90
        3
176
     1
 62
     5
420
      255
176
     1
290
     0
176
     1
 90
       50
176
     1
 90
       50
176
     1
 90
       50
176
     1
290
     0
176
     1
 90
       50
176
     1
 62
   256
176
     0
 40
1.0
176
     0
 90
        2
176
     1
  1
strokes_ogs.tif
176
     1
290
     0
176
     1
 40
1.0
176
     1
 40
1.0
176
     1
  0
VISUALSTYLE
  5
34
102
{ACAD_REACTORS
330
2A
102
}
330
2A
100
AcDbVisualStyle
  2
Conceptual
 70
     9
177
     3
291
     0
 70
    58
 90
        3
176
     1
 90
        2
176
     1
 90
        0
176
     1
 90
        0
176
     1
 40
0.6
176
     1
 40
30.0
176
     1
 62
     7
420
 16777215
176
     1
 90
        2
176
     1
 90
        2
176
     1
 62
     7
176
     1
 62
   257
176
     1
 90
        1
176
     1
 90
        1
176
     1
 40
179.0
176
     1
 90
        8
176
     1
 62
     7
176
     1
 40
1.0
176
     1
 90
        1
176
     1
 90
        6
176
     1
 90
        2
176
     1
 62
     7
176
     1
 90
        3
176
     1
 90
        0
176
     1
 90
        0
176
     1
290
     0
176
     1
 90
        1
176
     1
 40
0.0
176
     1
 90
        0
176
     1
290
     0
176
     1
290
     1
176
     1
290
     1
176
     1
290
     0
176
     1
290
     0
176
     1
290
     0
176
     1
290
     0
176
     1
290
     0
176
     1
290
     0
176
     1
 90
       50
176
     1
 40
0.0
176
     1
 40
1.0
176
     1
 90
        0
176
     1
 62
    18
420
        0
176
     1
 90
       50
176
     1
 90
        3
176
     1
 62
     5
420
      255
176
     1
290
     0
176
     1
 90
       50
176
     1
 90
       50
176
     1
 90
       50
176
     1
290
     0
176
     1
 90
       50
176
     1
 62
   256
176
     0
 40
1.0
176
     0
 90
        2
176
     1
  1
strokes_ogs.tif
176
     1
290
     0
176
     1
 40
1.0
176
     1
 40
1.0
176
     1
  0
VISUALSTYLE
  5
35
102
{ACAD_REACTORS
330
2A
102
}
330
2A
100
AcDbVisualStyle
  2
Dim
 70
    11
177
     3
291
     1
 70
    58
 90
        2
176
     1
 90
        2
176
     1
 90
        0
176
     1
 90
        0
176
     1
 40
0.6
176
     1
 40
30.0
176
     1
 62
     7
420
 16777215
176
     1
 90
        1
176
     1
 90
        4
176
     1
 62
     7
176
     1
 62
   257
176
     1
 90
        1
176
     1
 90
        1
176
     1
 40
1.0
176
     1
 90
        8
176
     1
 62
     7
176
     1
 40
1.0
176
     1
 90
        1
176
     1
 90
        6
176
     1
 90
        2
176
     1
 62
     7
176
     1
 90
        5
176
     1
 90
        0
176
     1
 90
        0
176
     1
290
     0
176
     1
 90
        1
176
     1
 40
-50.0
176
     1
 90
        0
176
     1
290
     0
176
     1
290
     1
176
     1
290
     1
176
     1
290
     0
176
     1
290
     0
176
     1
290
     0
176
     1
290
     0
176
     1
290
     0
176
     1
290
     0
176
     1
 90
       50
176
     1
 40
0.0
176
     1
 40
1.0
176
     1
 90
        0
176
     1
 62
    18
420
        0
176
     1
 90
       50
176
     1
 90
        3
176
     1
 62
     5
420
      255
176
     1
290
     0
176
     1
 90
       50
176
     1
 90
       50
176
     1
 90
       50
176
     1
290
     0
176
     1
 90
       50
176
     1
 62
   256
176
     0
 40
1.0
176
     0
 90
        2
176
     1
  1
strokes_ogs.tif
176
     1
290
     0
176
     1
 40
1.0
176
     1
 40
1.0
176
     1
  0
VISUALSTYLE
  5
3D
102
{ACAD_REACTORS
330
2A
102
}
330
2A
100
AcDbVisualStyle
  2
EdgeColorOff
 70
    22
177
     3
291
     1
 70
    58
 90
        2
176
     0
 90
        2
176
     0
 90
        0
176
     0
 90
        0
176
     0
 40
0.6
176
     0
 40
30.0
176
     0
 62
     7
420
 16777215
176
     0
 90
        1
176
     0
 90
        4
176
     0
 62
     7
176
     0
 62
   257
176
     0
 90
        1
176
     0
 90
        1
176
     0
 40
1.0
176
     0
 90
        8
176
     2
 62
     7
176
     0
 40
1.0
176
     0
 90
        1
176
     0
 90
        6
176
     0
 90
        2
176
     0
 62
     7
176
     0
 90
        5
176
     0
 90
        0
176
     0
 90
        0
176
     0
290
     0
176
     0
 90
        1
176
     0
 40
0.0
176
     0
 90
        0
176
     0
290
     0
176
     0
290
     1
176
     0
290
     1
176
     0
290
     0
176
     0
290
     0
176
     0
290
     0
176
     0
290
     0
176
     0
290
     0
176
     0
290
     0
176
     0
 90
       50
176
     0
 40
0.0
176
     0
 40
1.0
176
     0
 90
        0
176
     0
 62
    18
420
        0
176
     0
 90
       50
176
     0
 90
        3
176
     0
 62
     5
420
      255
176
     0
290
     0
176
     0
 90
       50
176
     0
 90
       50
176
     0
 90
       50
176
     0
290
     0
176
     0
 90
       50
176
     0
 62
   256
176
     0
 40
1.0
176
     0
 90
        2
176
     0
  1
strokes_ogs.tif
176
     0
290
     0
176
     0
 40
1.0
176
     0
 40
1.0
176
     0
  0
VISUALSTYLE
  5
39
102
{ACAD_REACTORS
330
2A
102
}
330
2A
100
AcDbVisualStyle
  2
Facepattern
 70
    15
177
     3
291
     1
 70
    58
 90
        2
176
     1
 90
        2
176
     1
 90
        0
176
     1
 90
        0
176
     1
 40
0.6
176
     1
 40
30.0
176
     1
 62
     7
420
 16777215
176
     1
 90
        1
176
     1
 90
        4
176
     1
 62
     7
176
     1
 62
   257
176
     1
 90
        1
176
     1
 90
        1
176
     1
 40
1.0
176
     1
 90
        8
176
     1
 62
     7
176
     1
 40
1.0
176
     1
 90
        1
176
     1
 90
        6
176
     1
 90
        2
176
     1
 62
     7
176
     1
 90
        5
176
     1
 90
        0
176
     1
 90
        0
176
     1
290
     0
176
     1
 90
        1
176
     1
 40
0.0
176
     1
 90
        0
176
     1
290
     0
176
     1
290
     1
176
     1
290
     1
176
     1
290
     0
176
     1
290
     0
176
     1
290
     0
176
     1
290
     0
176
     1
290
     0
176
     1
290
     0
176
     1
 90
       50
176
     1
 40
0.0
176
     1
 40
1.0
176
     1
 90
        0
176
     1
 62
    18
420
        0
176
     1
 90
       50
176
     1
 90
        3
176
     1
 62
     5
420
      255
176
     1
290
     0
176
     1
 90
       50
176
     1
 90
       50
176
     1
 90
       50
176
     1
290
     0
176
     1
 90
       50
176
     1
 62
   256
176
     0
 40
1.0
176
     0
 90
        2
176
     1
  1
strokes_ogs.tif
176
     1
290
     0
176
     1
 40
1.0
176
     1
 40
1.0
176
     1
  0
VISUALSTYLE
  5
2B
102
{ACAD_REACTORS
330
2A
102
}
330
2A
100
AcDbVisualStyle
  2
Flat
 70
     0
177
     3
291
     1
 70
    58
 90
        2
176
     1
 90
        1
176
     1
 90
        1
176
     1
 90
        2
176
     1
 40
0.6
176
     1
 40
30.0
176
     1
 62
     7
420
 16777215
176
     1
 90
        0
176
     1
 90
        0
176
     1
 62
     7
176
     1
 62
   257
176
     1
 90
        1
176
     1
 90
        1
176
     1
 40
1.0
176
     1
 90
        8
176
     1
 62
     7
176
     1
 40
1.0
176
     1
 90
        1
176
     1
 90
        6
176
     1
 90
        2
176
     1
 62
     7
176
     1
 90
        5
176
     1
 90
        0
176
     1
 90
        0
176
     1
290
     0
176
     1
 90
       13
176
     1
 40
0.0
176
     1
 90
        0
176
     1
290
     0
176
     1
290
     1
176
     1
290
     1
176
     1
290
     0
176
     1
290
     0
176
     1
290
     0
176
     1
290
     0
176
     1
290
     0
176
     1
290
     0
176
     1
 90
       50
176
     1
 40
0.0
176
     1
 40
1.0
176
     1
 90
        0
176
     1
 62
    18
420
        0
176
     1
 90
       50
176
     1
 90
        3
176
     1
 62
     5
420
      255
176
     1
290
     0
176
     1
 90
       50
176
     1
 90
       50
176
     1
 90
       50
176
     1
290
     0
176
     1
 90
       50
176
     1
 62
   256
176
     0
 40
1.0
176
     0
 90
        2
176
     1
  1
strokes_ogs.tif
176
     1
290
     0
176
     1
 40
1.0
176
     1
 40
1.0
176
     1
  0
VISUALSTYLE
  5
2C
102
{ACAD_REACTORS
330
2A
102
}
330
2A
100
AcDbVisualStyle
  2
FlatWithEdges
 70
     1
177
     3
291
     1
 70
    58
 90
        2
176
     1
 90
        1
176
     1
 90
        1
176
     1
 90
        2
176
     1
 40
0.6
176
     1
 40
30.0
176
     1
 62
     7
420
 16777215
176
     1
 90
        1
176
     1
 90
        0
176
     1
 62
     7
176
     1
 62
   257
176
     1
 90
        1
176
     1
 90
        1
176
     1
 40
1.0
176
     1
 90
        0
176
     1
 62
   257
176
     1
 40
1.0
176
     1
 90
        1
176
     1
 90
        6
176
     1
 90
        2
176
     1
 62
     7
176
     1
 90
        5
176
     1
 90
        0
176
     1
 90
        0
176
     1
290
     0
176
     1
 90
       13
176
     1
 40
0.0
176
     1
 90
        0
176
     1
290
     0
176
     1
290
     1
176
     1
290
     1
176
     1
290
     0
176
     1
290
     0
176
     1
290
     0
176
     1
290
     0
176
     1
290
     0
176
     1
290
     0
176
     1
 90
       50
176
     1
 40
0.0
176
     1
 40
1.0
176
     1
 90
        0
176
     1
 62
    18
420
        0
176
     1
 90
       50
176
     1
 90
        3
176
     1
 62
     5
420
      255
176
     1
290
     0
176
     1
 90
       50
176
     1
 90
       50
176
     1
 90
       50
176
     1
290
     0
176
     1
 90
       50
176
     1
 62
   256
176
     0
 40
1.0
176
     0
 90
        2
176
     1
  1
strokes_ogs.tif
176
     1
290
     0
176
     1
 40
1.0
176
     1
 40
1.0
176
     1
  0
VISUALSTYLE
  5
2D
102
{ACAD_REACTORS
330
2A
102
}
330
2A
100
AcDbVisualStyle
  2
Gouraud
 70
     2
177
     3
291
     1
 70
    58
 90
        2
176
     1
 90
        2
176
     1
 90
        1
176
     1
 90
        2
176
     1
 40
0.6
176
     1
 40
30.0
176
     1
 62
     7
420
 16777215
176
     1
 90
        0
176
     1
 90
        0
176
     1
 62
     7
176
     1
 62
   257
176
     1
 90
        1
176
     1
 90
        1
176
     1
 40
1.0
176
     1
 90
        0
176
     1
 62
     7
176
     1
 40
1.0
176
     1
 90
        1
176
     1
 90
        6
176
     1
 90
        2
176
     1
 62
     7
176
     1
 90
        5
176
     1
 90
        0
176
     1
 90
        0
176
     1
290
     0
176
     1
 90
       13
176
     1
 40
0.0
176
     1
 90
        0
176
     1
290
     0
176
     1
290
     1
176
     1
290
     1
176
     1
290
     0
176
     1
290
     0
176
     1
290
     0
176
     1
290
     0
176
     1
290
     0
176
     1
290
     0
176
     1
 90
       50
176
     1
 40
0.0
176
     1
 40
1.0
176
     1
 90
        0
176
     1
 62
    18
420
        0
176
     1
 90
       50
176
     1
 90
        3
176
     1
 62
     5
420
      255
176
     1
290
     0
176
     1
 90
       50
176
     1
 90
       50
176
     1
 90
       50
176
     1
290
     0
176
     1
 90
       50
176
     1
 62
   256
176
     0
 40
1.0
176
     0
 90
        2
176
     1
  1
strokes_ogs.tif
176
     1
290
     0
176
     1
 40
1.0
176
     1
 40
1.0
176
     1
  0
VISUALSTYLE
  5
2E
102
{ACAD_REACTORS
330
2A
102
}
330
2A
100
AcDbVisualStyle
  2
GouraudWithEdges
 70
     3
177
     3
291
     1
 70
    58
 90
        2
176
     1
 90
        2
176
     1
 90
        1
176
     1
 90
        2
176
     1
 40
0.6
176
     1
 40
30.0
176
     1
 62
     7
420
 16777215
176
     1
 90
        1
176
     1
 90
        0
176
     1
 62
     7
176
     1
 62
   257
176
     1
 90
        1
176
     1
 90
        1
176
     1
 40
1.0
176
     1
 90
        0
176
     1
 62
   257
176
     1
 40
1.0
176
     1
 90
        1
176
     1
 90
        6
176
     1
 90
        2
176
     1
 62
     7
176
     1
 90
        5
176
     1
 90
        0
176
     1
 90
        0
176
     1
290
     0
176
     1
 90
       13
176
     1
 40
0.0
176
     1
 90
        0
176
     1
290
     0
176
     1
290
     1
176
     1
290
     1
176
     1
290
     0
176
     1
290
     0
176
     1
290
     0
176
     1
290
     0
176
     1
290
     0
176
     1
290
     0
176
     1
 90
       50
176
     1
 40
0.0
176
     1
 40
1.0
176
     1
 90
        0
176
     1
 62
    18
420
        0
176
     1
 90
       50
176
     1
 90
        3
176
     1
 62
     5
420
      255
176
     1
290
     0
176
     1
 90
       50
176
     1
 90
       50
176
     1
 90
       50
176
     1
290
     0
176
     1
 90
       50
176
     1
 62
   256
176
     0
 40
1.0
176
     0
 90
        2
176
     1
  1
strokes_ogs.tif
176
     1
290
     0
176
     1
 40
1.0
176
     1
 40
1.0
176
     1
  0
VISUALSTYLE
  5
31
102
{ACAD_REACTORS
330
2A
102
}
330
2A
100
AcDbVisualStyle
  2
Hidden
 70
     6
177
     3
291
     0
 70
    58
 90
        1
176
     1
 90
        2
176
     1
 90
        2
176
     1
 90
        0
176
     1
 40
0.6
176
     1
 40
30.0
176
     1
 62
     7
420
 16777215
176
     1
 90
        2
176
     1
 90
        2
176
     1
 62
     7
176
     1
 62
   257
176
     1
 90
        2
176
     1
 90
        1
176
     1
 40
40.0
176
     1
 90
        0
176
     1
 62
   257
176
     1
 40
1.0
176
     1
 90
        1
176
     1
 90
        6
176
     1
 90
        2
176
     1
 62
     7
176
     1
 90
        3
176
     1
 90
        0
176
     1
 90
        0
176
     1
290
     0
176
     1
 90
        1
176
     1
 40
0.0
176
     1
 90
        0
176
     1
290
     0
176
     1
290
     1
176
     1
290
     1
176
     1
290
     0
176
     1
290
     0
176
     1
290
     0
176
     1
290
     0
176
     1
290
     0
176
     1
290
     0
176
     1
 90
       50
176
     1
 40
0.0
176
     1
 40
1.0
176
     1
 90
        0
176
     1
 62
    18
420
        0
176
     1
 90
       50
176
     1
 90
        3
176
     1
 62
     5
420
      255
176
     1
290
     0
176
     1
 90
       50
176
     1
 90
       50
176
     1
 90
       50
176
     1
290
     0
176
     1
 90
       50
176
     1
 62
   256
176
     0
 40
1.0
176
     0
 90
        2
176
     1
  1
strokes_ogs.tif
176
     1
290
     0
176
     1
 40
1.0
176
     1
 40
1.0
176
     1
  0
VISUALSTYLE
  5
3B
102
{ACAD_REACTORS
330
2A
102
}
330
2A
100
AcDbVisualStyle
  2
JitterOff
 70
    20
177
     3
291
     1
 70
    58
 90
        2
176
     0
 90
        2
176
     0
 90
        0
176
     0
 90
        0
176
     0
 40
0.6
176
     0
 40
30.0
176
     0
 62
     7
420
 16777215
176
     0
 90
        1
176
     0
 90
        4
176
     0
 62
     7
176
     0
 62
   257
176
     0
 90
        1
176
     0
 90
        1
176
     0
 40
1.0
176
     0
 90
       10
176
     2
 62
     7
176
     0
 40
1.0
176
     0
 90
        1
176
     0
 90
        6
176
     0
 90
        2
176
     0
 62
     7
176
     0
 90
        5
176
     0
 90
        0
176
     0
 90
        0
176
     0
290
     0
176
     0
 90
        1
176
     0
 40
0.0
176
     0
 90
        0
176
     0
290
     0
176
     0
290
     1
176
     0
290
     1
176
     0
290
     0
176
     0
290
     0
176
     0
290
     0
176
     0
290
     0
176
     0
290
     0
176
     0
290
     0
176
     0
 90
       50
176
     0
 40
0.0
176
     0
 40
1.0
176
     0
 90
        0
176
     0
 62
    18
420
        0
176
     0
 90
       50
176
     0
 90
        3
176
     0
 62
     5
420
      255
176
     0
290
     0
176
     0
 90
       50
176
     0
 90
       50
176
     0
 90
       50
176
     0
290
     0
176
     0
 90
       50
176
     0
 62
   256
176
     0
 40
1.0
176
     0
 90
        2
176
     0
  1
strokes_ogs.tif
176
     0
290
     0
176
     0
 40
1.0
176
     0
 40
1.0
176
     0
  0
VISUALSTYLE
  5
38
102
{ACAD_REACTORS
330
2A
102
}
330
2A
100
AcDbVisualStyle
  2
Linepattern
 70
    14
177
     3
291
     1
 70
    58
 90
        2
176
     1
 90
        2
176
     1
 90
        0
176
     1
 90
        0
176
     1
 40
0.6
176
     1
 40
30.0
176
     1
 62
     7
420
 16777215
176
     1
 90
        1
176
     1
 90
        4
176
     1
 62
     7
176
     1
 62
   257
176
     1
 90
        7
176
     1
 90
        7
176
     1
 40
1.0
176
     1
 90
        8
176
     1
 62
     7
176
     1
 40
1.0
176
     1
 90
        1
176
     1
 90
        6
176
     1
 90
        2
176
     1
 62
     7
176
     1
 90
        5
176
     1
 90
        0
176
     1
 90
        0
176
     1
290
     0
176
     1
 90
        1
176
     1
 40
0.0
176
     1
 90
        0
176
     1
290
     0
176
     1
290
     1
176
     1
290
     1
176
     1
290
     0
176
     1
290
     0
176
     1
290
     0
176
     1
290
     0
176
     1
290
     0
176
     1
290
     0
176
     1
 90
       50
176
     1
 40
0.0
176
     1
 40
1.0
176
     1
 90
        0
176
     1
 62
    18
420
        0
176
     1
 90
       50
176
     1
 90
        3
176
     1
 62
     5
420
      255
176
     1
290
     0
176
     1
 90
       50
176
     1
 90
       50
176
     1
 90
       50
176
     1
290
     0
176
     1
 90
       50
176
     1
 62
   256
176
     0
 40
1.0
176
     0
 90
        2
176
     1
  1
strokes_ogs.tif
176
     1
290
     0
176
     1
 40
1.0
176
     1
 40
1.0
176
     1
  0
VISUALSTYLE
  5
3C
102
{ACAD_REACTORS
330
2A
102
}
330
2A
100
AcDbVisualStyle
  2
OverhangOff
 70
    21
177
     3
291
     1
 70
    58
 90
        2
176
     0
 90
        2
176
     0
 90
        0
176
     0
 90
        0
176
     0
 40
0.6
176
     0
 40
30.0
176
     0
 62
     7
420
 16777215
176
     0
 90
        1
176
     0
 90
        4
176
     0
 62
     7
176
     0
 62
   257
176
     0
 90
        1
176
     0
 90
        1
176
     0
 40
1.0
176
     0
 90
        9
176
     2
 62
     7
176
     0
 40
1.0
176
     0
 90
        1
176
     0
 90
        6
176
     0
 90
        2
176
     0
 62
     7
176
     0
 90
        5
176
     0
 90
        0
176
     0
 90
        0
176
     0
290
     0
176
     0
 90
        1
176
     0
 40
0.0
176
     0
 90
        0
176
     0
290
     0
176
     0
290
     1
176
     0
290
     1
176
     0
290
     0
176
     0
290
     0
176
     0
290
     0
176
     0
290
     0
176
     0
290
     0
176
     0
290
     0
176
     0
 90
       50
176
     0
 40
0.0
176
     0
 40
1.0
176
     0
 90
        0
176
     0
 62
    18
420
        0
176
     0
 90
       50
176
     0
 90
        3
176
     0
 62
     5
420
      255
176
     0
290
     0
176
     0
 90
       50
176
     0
 90
       50
176
     0
 90
       50
176
     0
290
     0
176
     0
 90
       50
176
     0
 62
   256
176
     0
 40
1.0
176
     0
 90
        2
176
     0
  1
strokes_ogs.tif
176
     0
290
     0
176
     0
 40
1.0
176
     0
 40
1.0
176
     0
  0
VISUALSTYLE
  5
33
102
{ACAD_REACTORS
330
2A
102
}
330
2A
100
AcDbVisualStyle
  2
Realistic
 70
     8
177
     3
291
     0
 70
    58
 90
        2
176
     1
 90
        3
176
     1
 90
        0
176
     1
 90
        2
176
     1
 40
0.6
176
     1
 40
30.0
176
     1
 62
     7
420
 16777215
176
     1
 90
        0
176
     1
 90
        0
176
     1
 62
     7
176
     1
 62
   257
176
     1
 90
        1
176
     1
 90
        1
176
     1
 40
1.0
176
     1
 90
        8
176
     1
 62
   257
176
     1
 40
1.0
176
     1
 90
        1
176
     1
 90
        6
176
     1
 90
        2
176
     1
 62
     7
176
     1
 90
        3
176
     1
 90
        0
176
     1
 90
        0
176
     1
290
     0
176
     1
 90
       13
176
     1
 40
0.0
176
     1
 90
        0
176
     1
290
     0
176
     1
290
     1
176
     1
290
     1
176
     1
290
     0
176
     1
290
     0
176
     1
290
     0
176
     1
290
     0
176
     1
290
     0
176
     1
290
     0
176
     1
 90
       50
176
     1
 40
0.0
176
     1
 40
1.0
176
     1
 90
        0
176
     1
 62
    18
420
        0
176
     1
 90
       50
176
     1
 90
        3
176
     1
 62
     5
420
      255
176
     1
290
     0
176
     1
 90
       50
176
     1
 90
       50
176
     1
 90
       50
176
     1
290
     0
176
     1
 90
       50
176
     1
 62
   256
176
     0
 40
1.0
176
     0
 90
        2
176
     1
  1
strokes_ogs.tif
176
     1
290
     0
176
     1
 40
1.0
176
     1
 40
1.0
176
     1
  0
VISUALSTYLE
  5
42
102
{ACAD_REACTORS
330
2A
102
}
330
2A
100
AcDbVisualStyle
  2
Shaded
 70
    27
177
     3
291
     0
 70
    58
 90
        2
176
     1
 90
        2
176
     1
 90
        1
176
     1
 90
        2
176
     1
 40
0.6
176
     1
 40
30.0
176
     1
 62
     7
420
 16777215
176
     1
 90
        0
176
     1
 90
        4
176
     1
 62
     7
176
     1
 62
   257
176
     1
 90
        1
176
     1
 90
        1
176
     1
 40
1.0
176
     1
 90
        8
176
     1
 62
   257
176
     1
 40
1.0
176
     1
 90
        1
176
     1
 90
        6
176
     1
 90
        2
176
     1
 62
     8
420
  7895160
176
     1
 90
        3
176
     1
 90
        0
176
     1
 90
        0
176
     1
290
     0
176
     1
 90
        5
176
     1
 40
0.0
176
     1
 90
        0
176
     1
290
     0
176
     1
290
     1
176
     1
290
     1
176
     1
290
     0
176
     1
290
     0
176
     1
290
     0
176
     1
290
     0
176
     1
290
     0
176
     1
290
     0
176
     1
 90
       50
176
     1
 40
0.0
176
     1
 40
1.0
176
     1
 90
        0
176
     1
 62
    18
420
        0
176
     1
 90
       50
176
     1
 90
        3
176
     1
 62
     5
420
      255
176
     1
290
     0
176
     1
 90
       50
176
     1
 90
       50
176
     1
 90
       50
176
     1
290
     0
176
     1
 90
       50
176
     1
 62
   256
176
     0
 40
1.0
176
     0
 90
        2
176
     1
  1
strokes_ogs.tif
176
     1
290
     0
176
     1
 40
1.0
176
     1
 40
1.0
176
     1
  0
VISUALSTYLE
  5
41
102
{ACAD_REACTORS
330
2A
102
}
330
2A
100
AcDbVisualStyle
  2
Shaded with edges
 70
    26
177
     3
291
     0
 70
    58
 90
        2
176
     1
 90
        2
176
     1
 90
        1
176
     1
 90
        2
176
     1
 40
0.6
176
     1
 40
30.0
176
     1
 62
     7
420
 16777215
176
     1
 90
        1
176
     1
 90
       10
176
     1
 62
     7
176
     1
 62
   257
176
     1
 90
        2
176
     1
 90
        1
176
     1
 40
1.0
176
     1
 90
        8
176
     1
 62
   257
176
     1
 40
1.0
176
     1
 90
        1
176
     1
 90
        6
176
     1
 90
        2
176
     1
 62
     7
176
     1
 90
        3
176
     1
 90
        0
176
     1
 90
        0
176
     1
290
     0
176
     1
 90
        5
176
     1
 40
0.0
176
     1
 90
        0
176
     1
290
     0
176
     1
290
     1
176
     1
290
     1
176
     1
290
     0
176
     1
290
     0
176
     1
290
     0
176
     1
290
     0
176
     1
290
     0
176
     1
290
     0
176
     1
 90
       50
176
     1
 40
0.0
176
     1
 40
1.0
176
     1
 90
        0
176
     1
 62
    18
420
        0
176
     1
 90
       50
176
     1
 90
        3
176
     1
 62
     5
420
      255
176
     1
290
     0
176
     1
 90
       50
176
     1
 90
       50
176
     1
 90
       50
176
     1
290
     0
176
     1
 90
       50
176
     1
 62
   256
176
     0
 40
1.0
176
     0
 90
        2
176
     1
  1
strokes_ogs.tif
176
     1
290
     0
176
     1
 40
1.0
176
     1
 40
1.0
176
     1
  0
VISUALSTYLE
  5
3E
102
{ACAD_REACTORS
330
2A
102
}
330
2A
100
AcDbVisualStyle
  2
Shades of Gray
 70
    23
177
     3
291
     0
 70
    58
 90
        2
176
     1
 90
        2
176
     1
 90
        3
176
     1
 90
        0
176
     1
 40
0.6
176
     1
 40
30.0
176
     1
 62
     7
420
 16777215
176
     1
 90
        2
176
     1
 90
        2
176
     1
 62
     7
176
     1
 62
     7
176
     1
 90
        1
176
     1
 90
        1
176
     1
 40
40.0
176
     1
 90
        8
176
     1
 62
     7
176
     1
 40
1.0
176
     1
 90
        1
176
     1
 90
        6
176
     1
 90
        2
176
     1
 62
     7
176
     1
 90
        3
176
     1
 90
        0
176
     1
 90
        0
176
     1
290
     0
176
     1
 90
        1
176
     1
 40
0.0
176
     1
 90
        0
176
     1
290
     0
176
     1
290
     1
176
     1
290
     1
176
     1
290
     0
176
     1
290
     0
176
     1
290
     0
176
     1
290
     0
176
     1
290
     0
176
     1
290
     0
176
     1
 90
       50
176
     1
 40
0.0
176
     1
 40
1.0
176
     1
 90
        0
176
     1
 62
    18
420
        0
176
     1
 90
       50
176
     1
 90
        3
176
     1
 62
     5
420
      255
176
     1
290
     0
176
     1
 90
       50
176
     1
 90
       50
176
     1
 90
       50
176
     1
290
     0
176
     1
 90
       50
176
     1
 62
   256
176
     0
 40
1.0
176
     0
 90
        2
176
     1
  1
strokes_ogs.tif
176
     1
290
     0
176
     1
 40
1.0
176
     1
 40
1.0
176
     1
  0
VISUALSTYLE
  5
3F
102
{ACAD_REACTORS
330
2A
102
}
330
2A
100
AcDbVisualStyle
  2
Sketchy
 70
    24
177
     3
291
     0
 70
    58
 90
        1
176
     1
 90
        2
176
     1
 90
        2
176
     1
 90
        0
176
     1
 40
0.6
176
     1
 40
30.0
176
     1
 62
     7
420
 16777215
176
     1
 90
        2
176
     1
 90
        2
176
     1
 62
     7
176
     1
 62
     7
176
     1
 90
        1
176
     1
 90
        1
176
     1
 40
40.0
176
     1
 90
       11
176
     1
 62
     7
176
     1
 40
1.0
176
     1
 90
        1
176
     1
 90
        6
176
     1
 90
        2
176
     1
 62
     7
176
     1
 90
        6
176
     1
 90
        0
176
     1
 90
        0
176
     1
290
     0
176
     1
 90
        1
176
     1
 40
0.0
176
     1
 90
        0
176
     1
290
     0
176
     1
290
     1
176
     1
290
     1
176
     1
290
     0
176
     1
290
     0
176
     1
290
     0
176
     1
290
     0
176
     1
290
     0
176
     1
290
     0
176
     1
 90
       50
176
     1
 40
0.0
176
     1
 40
1.0
176
     1
 90
        0
176
     1
 62
    18
420
        0
176
     1
 90
       50
176
     1
 90
        3
176
     1
 62
     5
420
      255
176
     1
290
     0
176
     1
 90
       50
176
     1
 90
       50
176
     1
 90
       50
176
     1
290
     0
176
     1
 90
       50
176
     1
 62
   256
176
     0
 40
1.0
176
     0
 90
        2
176
     1
  1
strokes_ogs.tif
176
     1
290
     0
176
     1
 40
1.0
176
     1
 40
1.0
176
     1
  0
VISUALSTYLE
  5
37
102
{ACAD_REACTORS
330
2A
102
}
330
2A
100
AcDbVisualStyle
  2
Thicken
 70
    13
177
     3
291
     1
 70
    58
 90
        2
176
     1
 90
        2
176
     1
 90
        0
176
     1
 90
        0
176
     1
 40
0.6
176
     1
 40
30.0
176
     1
 62
     7
420
 16777215
176
     1
 90
        1
176
     1
 90
        4
176
     1
 62
     7
176
     1
 62
   257
176
     1
 90
        1
176
     1
 90
        1
176
     1
 40
1.0
176
     1
 90
       12
176
     1
 62
     7
176
     1
 40
1.0
176
     1
 90
        1
176
     1
 90
        6
176
     1
 90
        2
176
     1
 62
     7
176
     1
 90
        5
176
     1
 90
        0
176
     1
 90
        0
176
     1
290
     0
176
     1
 90
        1
176
     1
 40
0.0
176
     1
 90
        0
176
     1
290
     0
176
     1
290
     1
176
     1
290
     1
176
     1
290
     0
176
     1
290
     0
176
     1
290
     0
176
     1
290
     0
176
     1
290
     0
176
     1
290
     0
176
     1
 90
       50
176
     1
 40
0.0
176
     1
 40
1.0
176
     1
 90
        0
176
     1
 62
    18
420
        0
176
     1
 90
       50
176
     1
 90
        3
176
     1
 62
     5
420
      255
176
     1
290
     0
176
     1
 90
       50
176
     1
 90
       50
176
     1
 90
       50
176
     1
290
     0
176
     1
 90
       50
176
     1
 62
   256
176
     0
 40
1.0
176
     0
 90
        2
176
     1
  1
strokes_ogs.tif
176
     1
290
     0
176
     1
 40
1.0
176
     1
 40
1.0
176
     1
  0
VISUALSTYLE
  5
30
102
{ACAD_REACTORS
330
2A
102
}
330
2A
100
AcDbVisualStyle
  2
Wireframe
 70
     5
177
     3
291
     0
 70
    58
 90
        0
176
     1
 90
        2
176
     1
 90
        0
176
     1
 90
        0
176
     1
 40
0.6
176
     1
 40
30.0
176
     1
 62
     7
420
 16777215
176
     1
 90
        1
176
     1
 90
        4
176
     1
 62
     7
176
     1
 62
   257
176
     1
 90
        1
176
     1
 90
        1
176
     1
 40
1.0
176
     1
 90
        0
176
     1
 62
   257
176
     1
 40
1.0
176
     1
 90
        1
176
     1
 90
        6
176
     1
 90
        2
176
     1
 62
     7
176
     1
 90
        3
176
     1
 90
        0
176
     1
 90
        0
176
     1
290
     0
176
     1
 90
        1
176
     1
 40
0.0
176
     1
 90
        0
176
     1
290
     0
176
     1
290
     1
176
     1
290
     1
176
     1
290
     0
176
     1
290
     0
176
     1
290
     0
176
     1
290
     0
176
     1
290
     0
176
     1
290
     0
176
     1
 90
       50
176
     1
 40
0.0
176
     1
 40
1.0
176
     1
 90
        0
176
     1
 62
    18
420
        0
176
     1
 90
       50
176
     1
 90
        3
176
     1
 62
     5
420
      255
176
     1
290
     0
176
     1
 90
       50
176
     1
 90
       50
176
     1
 90
       50
176
     1
290
     0
176
     1
 90
       50
176
     1
 62
   256
176
     0
 40
1.0
176
     0
 90
        2
176
     1
  1
strokes_ogs.tif
176
     1
290
     0
176
     1
 40
1.0
176
     1
 40
1.0
176
     1
  0
VISUALSTYLE
  5
40
102
{ACAD_REACTORS
330
2A
102
}
330
2A
100
AcDbVisualStyle
  2
X-Ray
 70
    25
177
     3
291
     0
 70
    58
 90
        2
176
     1
 90
        2
176
     1
 90
        1
176
     1
 90
        1
176
     1
 40
0.5
176
     1
 40
30.0
176
     1
 62
     7
420
 16777215
176
     1
 90
        1
176
     1
 90
        0
176
     1
 62
     7
176
     1
 62
   257
176
     1
 90
        1
176
     1
 90
        1
176
     1
 40
1.0
176
     1
 90
        8
176
     1
 62
     7
176
     1
 40
1.0
176
     1
 90
        1
176
     1
 90
        6
176
     1
 90
        2
176
     1
 62
     7
176
     1
 90
        3
176
     1
 90
        0
176
     1
 90
        0
176
     1
290
     0
176
     1
 90
       13
176
     1
 40
0.0
176
     1
 90
        0
176
     1
290
     0
176
     1
290
     1
176
     1
290
     1
176
     1
290
     0
176
     1
290
     0
176
     1
290
     0
176
     1
290
     0
176
     1
290
     0
176
     1
290
     0
176
     1
 90
       50
176
     1
 40
0.0
176
     1
 40
1.0
176
     1
 90
        0
176
     1
 62
    18
420
        0
176
     1
 90
       50
176
     1
 90
        3
176
     1
 62
     5
420
      255
176
     1
290
     0
176
     1
 90
       50
176
     1
 90
       50
176
     1
 90
       50
176
     1
290
     0
176
     1
 90
       50
176
     1
 62
   256
176
     0
 40
1.0
176
     0
 90
        2
176
     1
  1
strokes_ogs.tif
176
     1
290
     0
176
     1
 40
1.0
176
     1
 40
1.0
176
     1
  0
DICTIONARYVAR
  5
A0
102
{ACAD_REACTORS
330
9F
102
}
330
9F
100
DictionaryVariables
280
     0
  1
1:1
  0
DICTIONARYVAR
  5
A8
102
{ACAD_REACTORS
330
9F
102
}
330
9F
100
DictionaryVariables
280
     0
  1
3.500000
  0
DICTIONARYVAR
  5
A9
102
{ACAD_REACTORS
330
9F
102
}
330
9F
100
DictionaryVariables
280
     0
  1
acadiso.lin
  0
DICTIONARYVAR
  5
A5
102
{ACAD_REACTORS
330
9F
102
}
330
9F
100
DictionaryVariables
280
     0
  1
Standard
  0
DICTIONARYVAR
  5
A4
102
{ACAD_REACTORS
330
9F
102
}
330
9F
100
DictionaryVariables
280
     0
  1
Standard
  0
DICTIONARY
  5
A1
330
5A
100
AcDbDictionary
280
     1
281
     1
  3
ACAD_ROUNDTRIP_2008_TABLESTYLE_CELLSTYLEMAP
360
A2
  0
CELLSTYLEMAP
  5
A2
102
{ACAD_REACTORS
330
A1
102
}
330
A1
100
AcDbCellStyleMap
 90
        3
300
CELLSTYLE
  1
TABLEFORMAT_BEGIN
 90
        5
170
     1
 91
        0
 92
    32768
 62
   257
 93
        1
300
CONTENTFORMAT
  1
CONTENTFORMAT_BEGIN
 90
        0
 91
        0
 92
        4
 93
        0
300

 40
0.0
140
1.0
 94
        5
 62
     0
340
11
144
6.0
309
CONTENTFORMAT_END
171
     1
301
MARGIN
  1
CELLMARGIN_BEGIN
 40
1.5
 40
1.5
 40
1.5
 40
1.5
 40
1.5
 40
1.5
309
CELLMARGIN_END
 94
        6
 95
        1
302
GRIDFORMAT
  1
GRIDFORMAT_BEGIN
 90
        0
 91
        1
 62
     0
 92
       -2
340
14
 93
        0
 40
0.045
309
GRIDFORMAT_END
 95
        2
302
GRIDFORMAT
  1
GRIDFORMAT_BEGIN
 90
        0
 91
        1
 62
     0
 92
       -2
340
14
 93
        0
 40
0.045
309
GRIDFORMAT_END
 95
        4
302
GRIDFORMAT
  1
GRIDFORMAT_BEGIN
 90
        0
 91
        1
 62
     0
 92
       -2
340
14
 93
        0
 40
0.045
309
GRIDFORMAT_END
 95
        8
302
GRIDFORMAT
  1
GRIDFORMAT_BEGIN
 90
        0
 91
        1
 62
     0
 92
       -2
340
14
 93
        0
 40
0.045
309
GRIDFORMAT_END
 95
       16
302
GRIDFORMAT
  1
GRIDFORMAT_BEGIN
 90
        0
 91
        1
 62
     0
 92
       -2
340
14
 93
        0
 40
0.045
309
GRIDFORMAT_END
 95
       32
302
GRIDFORMAT
  1
GRIDFORMAT_BEGIN
 90
        0
 91
        1
 62
     0
 92
       -2
340
14
 93
        0
 40
0.045
309
GRIDFORMAT_END
309
TABLEFORMAT_END
  1
CELLSTYLE_BEGIN
 90
        1
 91
        1
300
_TITLE
309
CELLSTYLE_END
300
CELLSTYLE
  1
TABLEFORMAT_BEGIN
 90
        5
170
     1
 91
        0
 92
        0
 62
   257
 93
        1
300
CONTENTFORMAT
  1
CONTENTFORMAT_BEGIN
 90
        0
 91
        0
 92
        4
 93
        0
300

 40
0.0
140
1.0
 94
        5
 62
     0
340
11
144
4.5
309
CONTENTFORMAT_END
171
     1
301
MARGIN
  1
CELLMARGIN_BEGIN
 40
1.5
 40
1.5
 40
1.5
 40
1.5
 40
1.5
 40
1.5
309
CELLMARGIN_END
 94
        6
 95
        1
302
GRIDFORMAT
  1
GRIDFORMAT_BEGIN
 90
        0
 91
        1
 62
     0
 92
       -2
340
14
 93
        0
 40
0.045
309
GRIDFORMAT_END
 95
        2
302
GRIDFORMAT
  1
GRIDFORMAT_BEGIN
 90
        0
 91
        1
 62
     0
 92
       -2
340
14
 93
        0
 40
0.045
309
GRIDFORMAT_END
 95
        4
302
GRIDFORMAT
  1
GRIDFORMAT_BEGIN
 90
        0
 91
        1
 62
     0
 92
       -2
340
14
 93
        0
 40
0.045
309
GRIDFORMAT_END
 95
        8
302
GRIDFORMAT
  1
GRIDFORMAT_BEGIN
 90
        0
 91
        1
 62
     0
 92
       -2
340
14
 93
        0
 40
0.045
309
GRIDFORMAT_END
 95
       16
302
GRIDFORMAT
  1
GRIDFORMAT_BEGIN
 90
        0
 91
        1
 62
     0
 92
       -2
340
14
 93
        0
 40
0.045
309
GRIDFORMAT_END
 95
       32
302
GRIDFORMAT
  1
GRIDFORMAT_BEGIN
 90
        0
 91
        1
 62
     0
 92
       -2
340
14
 93
        0
 40
0.045
309
GRIDFORMAT_END
309
TABLEFORMAT_END
  1
CELLSTYLE_BEGIN
 90
        2
 91
        1
300
_HEADER
309
CELLSTYLE_END
300
CELLSTYLE
  1
TABLEFORMAT_BEGIN
 90
        5
170
     1
 91
        0
 92
        0
 62
   257
 93
        1
300
CONTENTFORMAT
  1
CONTENTFORMAT_BEGIN
 90
        0
 91
        0
 92
        4
 93
        0
300

 40
0.0
140
1.0
 94
        2
 62
     0
340
11
144
4.5
309
CONTENTFORMAT_END
171
     1
301
MARGIN
  1
CELLMARGIN_BEGIN
 40
1.5
 40
1.5
 40
1.5
 40
1.5
 40
1.5
 40
1.5
309
CELLMARGIN_END
 94
        6
 95
        1
302
GRIDFORMAT
  1
GRIDFORMAT_BEGIN
 90
        0
 91
        1
 62
     0
 92
       -2
340
14
 93
        0
 40
0.045
309
GRIDFORMAT_END
 95
        2
302
GRIDFORMAT
  1
GRIDFORMAT_BEGIN
 90
        0
 91
        1
 62
     0
 92
       -2
340
14
 93
        0
 40
0.045
309
GRIDFORMAT_END
 95
        4
302
GRIDFORMAT
  1
GRIDFORMAT_BEGIN
 90
        0
 91
        1
 62
     0
 92
       -2
340
14
 93
        0
 40
0.045
309
GRIDFORMAT_END
 95
        8
302
GRIDFORMAT
  1
GRIDFORMAT_BEGIN
 90
        0
 91
        1
 62
     0
 92
       -2
340
14
 93
        0
 40
0.045
309
GRIDFORMAT_END
 95
       16
302
GRIDFORMAT
  1
GRIDFORMAT_BEGIN
 90
        0
 91
        1
 62
     0
 92
       -2
340
14
 93
        0
 40
0.045
309
GRIDFORMAT_END
 95
       32
302
GRIDFORMAT
  1
GRIDFORMAT_BEGIN
 90
        0
 91
        1
 62
     0
 92
       -2
340
14
 93
        0
 40
0.045
309
GRIDFORMAT_END
309
TABLEFORMAT_END
  1
CELLSTYLE_BEGIN
 90
        3
 91
        2
300
_DATA
309
CELLSTYLE_END
  0
ENDSEC
  0
EOF
