  0
SECTION
  2
HEADER
  9
$ACADVER
  1
AC1027
  9
$ACADMAINTVER
 70
   105
  9
$DWGCODEPAGE
  3
ANSI_932
  9
$LASTSAVEDBY
  1
a.yasuda
  9
$REQUIREDVERSIONS
160
                 0
  9
$INSBASE
 10
0.0
 20
0.0
 30
0.0
  9
$EXTMIN
 10
0.0
 20
0.0
 30
0.0
  9
$EXTMAX
 10
302.9997823349792
 20
216.0016055409748
 30
0.0
  9
$LIMMIN
 10
0.0
 20
0.0
  9
$LIMMAX
 10
302.9997823349792
 20
216.0016055409748
  9
$ORTHOMODE
 70
     0
  9
$REGENMODE
 70
     1
  9
$FILLMODE
 70
     1
  9
$QTEXTMODE
 70
     0
  9
$MIRRTEXT
 70
     1
  9
$LTSCALE
 40
1.0
  9
$ATTMODE
 70
     1
  9
$TEXTSIZE
 40
2.5
  9
$TRACEWID
 40
1.0
  9
$TEXTSTYLE
  7
Standard
  9
$CLAYER
  8
0
  9
$CELTYPE
  6
ByLayer
  9
$CECOLOR
 62
   256
  9
$CELTSCALE
 40
1.0
  9
$DISPSILH
 70
     0
  9
$DIMSCALE
 40
1.0
  9
$DIMASZ
 40
2.5
  9
$DIMEXO
 40
0.625
  9
$DIMDLI
 40
3.75
  9
$DIMRND
 40
0.0
  9
$DIMDLE
 40
0.0
  9
$DIMEXE
 40
1.25
  9
$DIMTP
 40
0.0
  9
$DIMTM
 40
0.0
  9
$DIMTXT
 40
2.5
  9
$DIMCEN
 40
2.5
  9
$DIMTSZ
 40
0.0
  9
$DIMTOL
 70
     0
  9
$DIMLIM
 70
     0
  9
$DIMTIH
 70
     0
  9
$DIMTOH
 70
     0
  9
$DIMSE1
 70
     0
  9
$DIMSE2
 70
     0
  9
$DIMTAD
 70
     1
  9
$DIMZIN
 70
     8
  9
$DIMBLK
  1

  9
$DIMASO
 70
     1
  9
$DIMSHO
 70
     1
  9
$DIMPOST
  1

  9
$DIMAPOST
  1

  9
$DIMALT
 70
     0
  9
$DIMALTD
 70
     3
  9
$DIMALTF
 40
0.03937007874016
  9
$DIMLFAC
 40
1.0
  9
$DIMTOFL
 70
     1
  9
$DIMTVP
 40
0.0
  9
$DIMTIX
 70
     0
  9
$DIMSOXD
 70
     0
  9
$DIMSAH
 70
     0
  9
$DIMBLK1
  1

  9
$DIMBLK2
  1

  9
$DIMSTYLE
  2
ISO-25
  9
$DIMCLRD
 70
     0
  9
$DIMCLRE
 70
     0
  9
$DIMCLRT
 70
     0
  9
$DIMTFAC
 40
1.0
  9
$DIMGAP
 40
0.625
  9
$DIMJUST
 70
     0
  9
$DIMSD1
 70
     0
  9
$DIMSD2
 70
     0
  9
$DIMTOLJ
 70
     0
  9
$DIMTZIN
 70
     8
  9
$DIMALTZ
 70
     0
  9
$DIMALTTZ
 70
     0
  9
$DIMUPT
 70
     0
  9
$DIMDEC
 70
     2
  9
$DIMTDEC
 70
     2
  9
$DIMALTU
 70
     2
  9
$DIMALTTD
 70
     3
  9
$DIMTXSTY
  7
Standard
  9
$DIMAUNIT
 70
     0
  9
$DIMADEC
 70
     0
  9
$DIMALTRND
 40
0.0
  9
$DIMAZIN
 70
     0
  9
$DIMDSEP
 70
    44
  9
$DIMATFIT
 70
     3
  9
$DIMFRAC
 70
     0
  9
$DIMLDRBLK
  1

  9
$DIMLUNIT
 70
     2
  9
$DIMLWD
 70
    -2
  9
$DIMLWE
 70
    -2
  9
$DIMTMOVE
 70
     0
  9
$DIMFXL
 40
1.0
  9
$DIMFXLON
 70
     0
  9
$DIMJOGANG
 40
0.7853981633974483
  9
$DIMTFILL
 70
     0
  9
$DIMTFILLCLR
 70
     0
  9
$DIMARCSYM
 70
     0
  9
$DIMLTYPE
  6

  9
$DIMLTEX1
  6

  9
$DIMLTEX2
  6

  9
$DIMTXTDIRECTION
 70
     0
  9
$LUNITS
 70
     2
  9
$LUPREC
 70
     4
  9
$SKETCHINC
 40
1.0
  9
$FILLETRAD
 40
0.0
  9
$AUNITS
 70
     0
  9
$AUPREC
 70
     0
  9
$MENU
  1
.
  9
$ELEVATION
 40
0.0
  9
$PELEVATION
 40
0.0
  9
$THICKNESS
 40
0.0
  9
$LIMCHECK
 70
     0
  9
$CHAMFERA
 40
0.0
  9
$CHAMFERB
 40
0.0
  9
$CHAMFERC
 40
0.0
  9
$CHAMFERD
 40
0.0
  9
$SKPOLY
 70
     0
  9
$TDCREATE
 40
2459866.618871273
  9
$TDUCREATE
 40
2459866.243871273
  9
$TDUPDATE
 40
2459866.61887132
  9
$TDUUPDATE
 40
2459866.24387132
  9
$TDINDWG
 40
0.0000000116
  9
$TDUSRTIMER
 40
0.0000000116
  9
$USRTIMER
 70
     1
  9
$ANGBASE
 50
0.0
  9
$ANGDIR
 70
     0
  9
$PDMODE
 70
     0
  9
$PDSIZE
 40
0.0
  9
$PLINEWID
 40
0.0
  9
$SPLFRAME
 70
     0
  9
$SPLINETYPE
 70
     6
  9
$SPLINESEGS
 70
     8
  9
$HANDSEED
  5
B7
  9
$SURFTAB1
 70
     6
  9
$SURFTAB2
 70
     6
  9
$SURFTYPE
 70
     6
  9
$SURFU
 70
     6
  9
$SURFV
 70
     6
  9
$UCSBASE
  2

  9
$UCSNAME
  2

  9
$UCSORG
 10
0.0
 20
0.0
 30
0.0
  9
$UCSXDIR
 10
1.0
 20
0.0
 30
0.0
  9
$UCSYDIR
 10
0.0
 20
1.0
 30
0.0
  9
$UCSORTHOREF
  2

  9
$UCSORTHOVIEW
 70
     0
  9
$UCSORGTOP
 10
0.0
 20
0.0
 30
0.0
  9
$UCSORGBOTTOM
 10
0.0
 20
0.0
 30
0.0
  9
$UCSORGLEFT
 10
0.0
 20
0.0
 30
0.0
  9
$UCSORGRIGHT
 10
0.0
 20
0.0
 30
0.0
  9
$UCSORGFRONT
 10
0.0
 20
0.0
 30
0.0
  9
$UCSORGBACK
 10
0.0
 20
0.0
 30
0.0
  9
$PUCSBASE
  2

  9
$PUCSNAME
  2

  9
$PUCSORG
 10
0.0
 20
0.0
 30
0.0
  9
$PUCSXDIR
 10
1.0
 20
0.0
 30
0.0
  9
$PUCSYDIR
 10
0.0
 20
1.0
 30
0.0
  9
$PUCSORTHOREF
  2

  9
$PUCSORTHOVIEW
 70
     0
  9
$PUCSORGTOP
 10
0.0
 20
0.0
 30
0.0
  9
$PUCSORGBOTTOM
 10
0.0
 20
0.0
 30
0.0
  9
$PUCSORGLEFT
 10
0.0
 20
0.0
 30
0.0
  9
$PUCSORGRIGHT
 10
0.0
 20
0.0
 30
0.0
  9
$PUCSORGFRONT
 10
0.0
 20
0.0
 30
0.0
  9
$PUCSORGBACK
 10
0.0
 20
0.0
 30
0.0
  9
$USERI1
 70
     0
  9
$USERI2
 70
     0
  9
$USERI3
 70
     0
  9
$USERI4
 70
     0
  9
$USERI5
 70
     0
  9
$USERR1
 40
0.0
  9
$USERR2
 40
0.0
  9
$USERR3
 40
0.0
  9
$USERR4
 40
0.0
  9
$USERR5
 40
0.0
  9
$WORLDVIEW
 70
     1
  9
$SHADEDGE
 70
     3
  9
$SHADEDIF
 70
    70
  9
$TILEMODE
 70
     1
  9
$MAXACTVP
 70
    64
  9
$PINSBASE
 10
0.0
 20
0.0
 30
0.0
  9
$PLIMCHECK
 70
     0
  9
$PEXTMIN
 10
1.000000000000000E+20
 20
1.000000000000000E+20
 30
1.000000000000000E+20
  9
$PEXTMAX
 10
-1.000000000000000E+20
 20
-1.000000000000000E+20
 30
-1.000000000000000E+20
  9
$PLIMMIN
 10
0.0
 20
0.0
  9
$PLIMMAX
 10
420.0
 20
297.0
  9
$UNITMODE
 70
     0
  9
$VISRETAIN
 70
     1
  9
$PLINEGEN
 70
     0
  9
$PSLTSCALE
 70
     1
  9
$TREEDEPTH
 70
  3020
  9
$CMLSTYLE
  2
Standard
  9
$CMLJUST
 70
     0
  9
$CMLSCALE
 40
20.0
  9
$PROXYGRAPHICS
 70
     1
  9
$MEASUREMENT
 70
     1
  9
$CELWEIGHT
370
    -1
  9
$ENDCAPS
280
     0
  9
$JOINSTYLE
280
     0
  9
$LWDISPLAY
290
     0
  9
$INSUNITS
 70
     4
  9
$HYPERLINKBASE
  1

  9
$STYLESHEET
  1

  9
$XEDIT
290
     1
  9
$CEPSNTYPE
380
     0
  9
$PSTYLEMODE
290
     1
  9
$FINGERPRINTGUID
  2
{d5cb591c-8f24-4638-9b60-e179b465fc02}
  9
$VERSIONGUID
  2
{FAEB1C32-E019-11D5-929B-00C0DF256EC4}
  9
$EXTNAMES
290
     1
  9
$PSVPSCALE
 40
0.0
  9
$OLESTARTUP
290
     0
  9
$SORTENTS
280
   127
  9
$INDEXCTL
280
     0
  9
$HIDETEXT
280
     1
  9
$XCLIPFRAME
280
     2
  9
$HALOGAP
280
     0
  9
$OBSCOLOR
 70
   257
  9
$OBSLTYPE
280
     0
  9
$INTERSECTIONDISPLAY
280
     0
  9
$INTERSECTIONCOLOR
 70
   257
  9
$DIMASSOC
280
     2
  9
$PROJECTNAME
  1

  9
$CAMERADISPLAY
290
     0
  9
$LENSLENGTH
 40
50.0
  9
$CAMERAHEIGHT
 40
0.0
  9
$STEPSPERSEC
 40
2.0
  9
$STEPSIZE
 40
6.0
  9
$3DDWFPREC
 40
2.0
  9
$PSOLWIDTH
 40
5.0
  9
$PSOLHEIGHT
 40
80.0
  9
$LOFTANG1
 40
1.570796326794897
  9
$LOFTANG2
 40
1.570796326794897
  9
$LOFTMAG1
 40
0.0
  9
$LOFTMAG2
 40
0.0
  9
$LOFTPARAM
 70
     7
  9
$LOFTNORMALS
280
     1
  9
$LATITUDE
 40
37.795
  9
$LONGITUDE
 40
-122.394
  9
$NORTHDIRECTION
 40
0.0
  9
$TIMEZONE
 70
 -8000
  9
$LIGHTGLYPHDISPLAY
280
     1
  9
$TILEMODELIGHTSYNCH
280
     1
  9
$CMATERIAL
347
44
  9
$SOLIDHIST
280
     0
  9
$SHOWHIST
280
     1
  9
$DWFFRAME
280
     2
  9
$DGNFRAME
280
     2
  9
$REALWORLDSCALE
290
     1
  9
$INTERFERECOLOR
 62
   256
  9
$CSHADOW
280
     0
  9
$SHADOWPLANELOCATION
 40
0.0
  0
ENDSEC
  0
SECTION
  2
CLASSES
  0
CLASS
  1
ACDBDICTIONARYWDFLT
  2
AcDbDictionaryWithDefault
  3
ObjectDBX Classes
 90
        0
 91
        3
280
     0
281
     0
  0
CLASS
  1
VISUALSTYLE
  2
AcDbVisualStyle
  3
ObjectDBX Classes
 90
     4095
 91
        3
280
     0
281
     0
  0
CLASS
  1
MATERIAL
  2
AcDbMaterial
  3
ObjectDBX Classes
 90
     1153
 91
        3
280
     0
281
     0
  0
CLASS
  1
SCALE
  2
AcDbScale
  3
ObjectDBX Classes
 90
     1153
 91
        3
280
     0
281
     0
  0
CLASS
  1
TABLESTYLE
  2
AcDbTableStyle
  3
ObjectDBX Classes
 90
     4095
 91
        3
280
     0
281
     0
  0
CLASS
  1
MLEADERSTYLE
  2
AcDbMLeaderStyle
  3
ACDB_MLEADERSTYLE_CLASS
 90
     4095
 91
        3
280
     0
281
     0
  0
CLASS
  1
SUN
  2
AcDbSun
  3
SCENEOE
 90
     1153
 91
        3
280
     0
281
     0
  0
CLASS
  1
DICTIONARYVAR
  2
AcDbDictionaryVar
  3
ObjectDBX Classes
 90
        0
 91
        3
280
     0
281
     0
  0
CLASS
  1
CELLSTYLEMAP
  2
AcDbCellStyleMap
  3
ObjectDBX Classes
 90
     1152
 91
        3
280
     0
281
     0
  0
ENDSEC
  0
SECTION
  2
TABLES
  0
TABLE
  2
VPORT
  5
8
330
0
100
AcDbSymbolTable
 70
     1
  0
VPORT
  5
29
330
8
100
AcDbSymbolTableRecord
100
AcDbViewportTableRecord
  2
*Active
 70
     0
 10
0.0
 20
0.0
 11
1.0
 21
1.0
 12
151.4998911674896
 22
108.0008027704874
 13
0.0
 23
0.0
 14
10.0
 24
10.0
 15
10.0
 25
10.0
 16
0.0
 26
0.0
 36
1.0
 17
0.0
 27
0.0
 37
0.0
 40
237.6017660950723
 41
1.402766343222857
 42
50.0
 43
0.0
 44
0.0
 50
0.0
 51
0.0
 71
     0
 72
 10000
 73
     1
 74
     3
 75
     0
 76
     0
 77
     0
 78
     0
281
     0
 65
     1
110
0.0
120
0.0
130
0.0
111
1.0
121
0.0
131
0.0
112
0.0
122
1.0
132
0.0
 79
     0
146
0.0
348
2F
 60
     3
 61
     5
292
     1
282
     1
141
0.0
142
0.0
 63
   250
361
5D
  0
ENDTAB
  0
TABLE
  2
LTYPE
  5
5
330
0
100
AcDbSymbolTable
 70
     2
  0
LTYPE
  5
14
330
5
100
AcDbSymbolTableRecord
100
AcDbLinetypeTableRecord
  2
ByBlock
 70
     0
  3

 72
    65
 73
     0
 40
0.0
  0
LTYPE
  5
15
330
5
100
AcDbSymbolTableRecord
100
AcDbLinetypeTableRecord
  2
ByLayer
 70
     0
  3

 72
    65
 73
     0
 40
0.0
  0
LTYPE
  5
16
330
5
100
AcDbSymbolTableRecord
100
AcDbLinetypeTableRecord
  2
Continuous
 70
     0
  3
Solid line
 72
    65
 73
     0
 40
0.0
  0
LTYPE
  5
5F
330
5
100
AcDbSymbolTableRecord
100
AcDbLinetypeTableRecord
  2
UserDefined01
 70
     0
  3
--------------------------------
 72
    65
 73
     1
 40
0.3527777724795871
 49
0.3527777724795871
 74
     0
  0
ENDTAB
  0
TABLE
  2
LAYER
  5
2
330
0
100
AcDbSymbolTable
 70
     3
  0
LAYER
  5
10
330
2
100
AcDbSymbolTableRecord
100
AcDbLayerTableRecord
  2
0
 70
     0
 62
     7
  6
Continuous
370
    -3
390
F
347
46
348
0
  0
LAYER
  5
60
330
2
100
AcDbSymbolTableRecord
100
AcDbLayerTableRecord
  2
外枠
 70
     0
 62
     7
  6
Continuous
370
    -3
390
F
347
46
348
0
  0
LAYER
  5
61
330
2
100
AcDbSymbolTableRecord
100
AcDbLayerTableRecord
  2
ISS138金台
 70
     0
 62
     7
  6
Continuous
370
    -3
390
F
347
46
348
0
  0
ENDTAB
  0
TABLE
  2
STYLE
  5
3
330
0
100
AcDbSymbolTable
 70
     2
  0
STYLE
  5
11
330
3
100
AcDbSymbolTableRecord
100
AcDbTextStyleTableRecord
  2
Standard
 70
     0
 40
0.0
 41
1.0
 50
0.0
 71
     0
 42
2.5
  3

  4

  0
STYLE
  5
5E
330
3
100
AcDbSymbolTableRecord
100
AcDbTextStyleTableRecord
  2
MS Gothic
 70
     0
 40
1.0
 41
1.0
 50
0.0
 71
     0
 42
2.5
  3
msgothic.ttc
  4

1001
ACAD
1000
MS Gothic
1071
    32817
  0
ENDTAB
  0
TABLE
  2
VIEW
  5
6
330
0
100
AcDbSymbolTable
 70
     0
  0
ENDTAB
  0
TABLE
  2
UCS
  5
7
330
0
100
AcDbSymbolTable
 70
     0
  0
ENDTAB
  0
TABLE
  2
APPID
  5
9
330
0
100
AcDbSymbolTable
 70
     1
  0
APPID
  5
12
330
9
100
AcDbSymbolTableRecord
100
AcDbRegAppTableRecord
  2
ACAD
 70
     0
  0
ENDTAB
  0
TABLE
  2
DIMSTYLE
  5
A
330
0
100
AcDbSymbolTable
 70
     1
100
AcDbDimStyleTable
  0
DIMSTYLE
105
27
330
A
100
AcDbSymbolTableRecord
100
AcDbDimStyleTableRecord
  2
ISO-25
 70
     0
 41
2.5
 42
0.625
 43
3.75
 44
1.25
 73
     0
 74
     0
 77
     1
 78
     8
140
2.5
141
2.5
143
0.03937007874016
147
0.625
171
     3
172
     1
178
     0
271
     2
272
     2
274
     3
278
    44
283
     0
284
     8
340
11
  0
ENDTAB
  0
TABLE
  2
BLOCK_RECORD
  5
1
330
0
100
AcDbSymbolTable
 70
     1
  0
BLOCK_RECORD
  5
1F
330
1
100
AcDbSymbolTableRecord
100
AcDbBlockTableRecord
  2
*Model_Space
340
22
 70
     0
280
     1
281
     0
  0
BLOCK_RECORD
  5
1B
330
1
100
AcDbSymbolTableRecord
100
AcDbBlockTableRecord
  2
*Paper_Space
340
1E
 70
     0
280
     1
281
     0
  0
BLOCK_RECORD
  5
23
330
1
100
AcDbSymbolTableRecord
100
AcDbBlockTableRecord
  2
*Paper_Space0
340
26
 70
     0
280
     1
281
     0
  0
ENDTAB
  0
ENDSEC
  0
SECTION
  2
BLOCKS
  0
BLOCK
  5
20
330
1F
100
AcDbEntity
  8
0
100
AcDbBlockBegin
  2
*Model_Space
 70
     0
 10
0.0
 20
0.0
 30
0.0
  3
*Model_Space
  1

  0
ENDBLK
  5
21
330
1F
100
AcDbEntity
  8
0
100
AcDbBlockEnd
  0
BLOCK
  5
1C
330
1B
100
AcDbEntity
 67
     1
  8
0
100
AcDbBlockBegin
  2
*Paper_Space
 70
     0
 10
0.0
 20
0.0
 30
0.0
  3
*Paper_Space
  1

  0
ENDBLK
  5
1D
330
1B
100
AcDbEntity
 67
     1
  8
0
100
AcDbBlockEnd
  0
BLOCK
  5
24
330
23
100
AcDbEntity
  8
0
100
AcDbBlockBegin
  2
*Paper_Space0
 70
     0
 10
0.0
 20
0.0
 30
0.0
  3
*Paper_Space0
  1

  0
ENDBLK
  5
25
330
23
100
AcDbEntity
  8
0
100
AcDbBlockEnd
  0
ENDSEC
  0
SECTION
  2
ENTITIES
  0
LWPOLYLINE
  5
62
330
1F
100
AcDbEntity
  8
外枠
  6
Continuous
 62
   250
420
  2367521
370
   100
100
AcDbPolyline
 90
        5
 70
     0
 43
0.0
 10
281.9999662644599
 20
13.29407825637392
 10
20.99981607051935
 20
13.29407825637392
 10
20.99981607051935
 20
193.0018900389566
 10
281.9999662644599
 20
193.0018900389566
 10
281.9999662644599
 20
13.29407825637392
  0
LINE
  5
63
330
1F
100
AcDbEntity
  8
外枠
  6
Continuous
 62
   250
420
  2367521
370
    25
100
AcDbLine
 10
223.3097080177524
 20
174.0786160074276
 30
0.0
 11
281.9999232007669
 21
174.0786160074276
 31
0.0
  0
LINE
  5
64
330
1F
100
AcDbEntity
  8
外枠
  6
Continuous
 62
   250
420
  2367521
370
    25
100
AcDbLine
 10
223.3097080177524
 20
50.37109023844297
 30
0.0
 11
281.9999232007669
 21
50.37109023844297
 31
0.0
  0
LINE
  5
65
330
1F
100
AcDbEntity
  8
外枠
  6
Continuous
 62
   250
420
  2367521
370
    25
100
AcDbLine
 10
223.3097080177524
 20
36.25997933925949
 30
0.0
 11
281.9999232007669
 21
36.25997933925949
 31
0.0
  0
LINE
  5
66
330
1F
100
AcDbEntity
  8
外枠
  6
Continuous
 62
   250
420
  2367521
370
    50
100
AcDbLine
 10
223.0158413772006
 20
193.3637327187979
 30
0.0
 11
223.0158413772006
 21
13.29396655992039
 31
0.0
  0
TEXT
  5
67
330
1F
100
AcDbEntity
  8
外枠
  6
Continuous
 62
   250
420
  2367521
100
AcDbText
 10
224.7190965599536
 20
186.6888051931772
 30
0.0
 40
2.688166626294454
  1
品名：
 41
0.974166170756022
  7
MS Gothic
100
AcDbText
  0
TEXT
  5
68
330
1F
100
AcDbEntity
  8
外枠
  6
Continuous
 62
   250
420
  2367521
100
AcDbText
 10
224.7190965599536
 20
168.1080059455944
 30
0.0
 40
2.688166626294454
  1
仕様：
 41
0.9978878657023111
  7
MS Gothic
100
AcDbText
  0
TEXT
  5
69
330
1F
100
AcDbEntity
  8
外枠
  6
Continuous
 62
   250
420
  2367521
100
AcDbText
 10
224.7190965599536
 20
44.16660664327048
 30
0.0
 40
2.688166626294454
  1
縮尺：
 41
0.9939999262491861
  7
MS Gothic
100
AcDbText
  0
TEXT
  5
6A
330
1F
100
AcDbEntity
  8
外枠
  6
Continuous
 62
   250
420
  2367521
100
AcDbText
 10
250.2379519709696
 20
40.59738467878129
 30
0.0
 40
2.150533301035563
  1
1/1
 41
1.000003814697266
  7
MS Gothic
100
AcDbText
  0
TEXT
  5
6B
330
1F
100
AcDbEntity
  8
外枠
  6
Continuous
 62
   250
420
  2367521
100
AcDbText
 10
232.7757967427735
 20
181.9845273775436
 30
0.0
 40
2.688166626294454
  1
フレックス
 41
0.999647979736328
  7
MS Gothic
100
AcDbText
  0
TEXT
  5
6C
330
1F
100
AcDbEntity
  8
外枠
  6
Continuous
 62
   250
420
  2367521
100
AcDbText
 10
232.7757967427735
 20
176.6928607903498
 30
0.0
 40
2.688166626294454
  1
ダブルアドロック33-F
 41
1.029383850097656
  7
MS Gothic
100
AcDbText
  0
TEXT
  5
6D
330
1F
100
AcDbEntity
  8
外枠
  6
Continuous
 62
   250
420
  2367521
100
AcDbText
 10
226.1633020978884
 20
24.25683874973963
 30
0.0
 40
2.553758294979732
  1
ヤスダインテリアサプライ株式会社
 41
1.0194908945184
  7
MS Gothic
100
AcDbText
  0
TEXT
  5
6E
330
1F
100
AcDbEntity
  8
外枠
  6
Continuous
 62
   250
420
  2367521
100
AcDbText
 10
227.7635273953072
 20
161.7763665048245
 30
0.0
 40
2.150533301035563
  1
材質
 41
1.028502464294433
  7
MS Gothic
100
AcDbText
  0
TEXT
  5
6F
330
1F
100
AcDbEntity
  8
外枠
  6
Continuous
 62
   250
420
  2367521
100
AcDbText
 10
232.7757967427735
 20
156.199681315683
 30
0.0
 40
2.016124969720841
  1
アルミ押出形材（A6063S-T5）/
 41
1.030580357142857
  7
MS Gothic
100
AcDbText
  0
TEXT
  5
70
330
1F
100
AcDbEntity
  8
外枠
  6
Continuous
 62
   250
420
  2367521
100
AcDbText
 10
232.7757967427735
 20
151.9663480459279
 30
0.0
 40
2.016124969720841
  1
シルバー仕上(アルマイト)
 41
1.052132924397786
  7
MS Gothic
100
AcDbText
  0
LINE
  5
71
330
1F
100
AcDbEntity
  8
ISS138金台
  6
Continuous
 62
   250
420
  2367521
370
    13
100
AcDbLine
 10
142.149127012134
 20
101.1786740684207
 30
0.0
 11
142.149127012134
 21
91.29384475927509
 31
0.0
  0
LINE
  5
72
330
1F
100
AcDbEntity
  8
ISS138金台
  6
Continuous
 62
   250
420
  2367521
370
    13
100
AcDbLine
 10
142.1222445018227
 20
91.80110276421652
 30
0.0
 11
99.12215664664271
 21
91.80110276421652
 31
0.0
  0
LINE
  5
73
330
1F
100
AcDbEntity
  8
ISS138金台
  6
Continuous
 62
   250
420
  2367521
370
    13
100
AcDbLine
 10
99.10849469006078
 20
91.29398471627711
 30
0.0
 11
99.10849469006078
 21
101.1788140254228
 31
0.0
  0
LINE
  5
74
330
1F
100
AcDbEntity
  8
ISS138金台
  6
Continuous
 62
   250
420
  2367521
370
    13
100
AcDbLine
 10
125.9778275113503
 20
107.3033539657222
 30
0.0
 11
154.0808059439951
 21
107.3033539657222
 31
0.0
  0
LINE
  5
75
330
1F
100
AcDbEntity
  8
ISS138金台
  6
Continuous
 62
   250
420
  2367521
370
    13
100
AcDbLine
 10
154.080849007688
 20
107.3033539657222
 30
0.0
 11
154.080849007688
 21
101.9026824058003
 31
0.0
  0
LINE
  5
76
330
1F
100
AcDbEntity
  8
ISS138金台
  6
Continuous
 62
   250
420
  2367521
370
    13
100
AcDbLine
 10
144.5768642328888
 20
101.9207476249843
 30
0.0
 11
153.8305735903042
 21
101.9207476249843
 31
0.0
  0
HATCH
  5
77
330
1F
100
AcDbEntity
  8
ISS138金台
  6
Continuous
 62
   250
420
  2367521
370
    13
100
AcDbHatch
 10
0.0
 20
0.0
 30
0.0
210
0.0
220
0.0
230
1.0
  2
SOLID
 70
     1
 71
     0
 91
        1
 92
        3
 72
     0
 73
     1
 93
       67
 10
154.080849007688
 20
107.0532292712637
 10
154.1063857775953
 20
107.0545211820515
 10
154.1311796987995
 20
107.0582892551829
 10
154.1551123461452
 20
107.0644258314254
 10
154.1780652944767
 20
107.0728124856234
 10
154.199898586792
 20
107.0833200266982
 10
154.2204937979356
 20
107.0958192635711
 10
154.2397217368287
 20
107.1101810051631
 10
154.2574639783157
 20
107.126297592242
 10
154.2735697994714
 20
107.144039833729
 10
154.2879530729099
 20
107.1632785385454
 10
154.3004738416292
 20
107.1839060474586
 10
154.3109921486272
 20
107.2057824034669
 10
154.3193895687485
 20
107.2287891814146
 10
154.3255476768374
 20
107.2527971902228
 10
154.329326515892
 20
107.2776987706594
 10
154.3306184266799
 20
107.3033539657222
 10
154.3306184266799
 20
107.3033539657222
 10
154.329326515892
 20
107.3288907356295
 10
154.3255369109142
 20
107.353695422757
 10
154.3193895687485
 20
107.3776280701026
 10
154.310981382704
 20
107.4005702525109
 10
154.3004738416292
 20
107.4224035448262
 10
154.2879530729099
 20
107.4429987559698
 10
154.2735805653946
 20
107.4622266948629
 10
154.2574639783157
 20
107.4799581704267
 10
154.2397217368287
 20
107.4960747575056
 10
154.2204937979356
 20
107.5104580309441
 10
154.199898586792
 20
107.5229680337401
 10
154.1780652944767
 20
107.5334863407382
 10
154.1551123461452
 20
107.5418837608595
 10
154.1311796987995
 20
107.5480418689484
 10
154.1063857775953
 20
107.551820708003
 10
154.080849007688
 20
107.5531126187909
 10
154.080849007688
 20
107.5531126187909
 10
154.0552476422413
 20
107.551820708003
 10
154.0304106573442
 20
107.5480418689484
 10
154.0064134144591
 20
107.5418837608595
 10
153.9834174024347
 20
107.5334863407382
 10
153.9615625782729
 20
107.5229680337401
 10
153.9409350693596
 20
107.5104580309441
 10
153.9216963645433
 20
107.4960747575056
 10
153.9039325912098
 20
107.4799581704267
 10
153.8877944722844
 20
107.4622159289397
 10
153.8734004329227
 20
107.4429879900466
 10
153.8608796642034
 20
107.4224035448262
 10
153.8503613572054
 20
107.4005702525109
 10
153.8419531711608
 20
107.3776280701026
 10
153.8358058289951
 20
107.3536846568337
 10
153.8320162240173
 20
107.3288907356295
 10
153.8307243132294
 20
107.3033539657222
 10
153.8307243132294
 20
107.3033539657222
 10
153.8320054580941
 20
107.2777095365826
 10
153.8358058289951
 20
107.2528079561461
 10
153.8419531711608
 20
107.2287891814146
 10
153.8503505912821
 20
107.2057716375437
 10
153.8608796642034
 20
107.1839060474586
 10
153.8733896669995
 20
107.1632785385454
 10
153.8877944722844
 20
107.1440505996523
 10
153.9039325912098
 20
107.1263083581653
 10
153.9216855986201
 20
107.1101810051631
 10
153.9409350693596
 20
107.0958084976479
 10
153.9615625782729
 20
107.0833200266982
 10
153.9834281683579
 20
107.0728124856234
 10
154.0064134144591
 20
107.0644258314254
 10
154.0303998914209
 20
107.0582892551829
 10
154.0552476422413
 20
107.0545104161283
 97
        0
 75
     1
 76
     1
 98
        0
  0
LWPOLYLINE
  5
78
330
1F
100
AcDbEntity
  8
ISS138金台
  6
Continuous
 62
   250
420
  2367521
370
    13
100
AcDbPolyline
 90
       68
 70
     0
 43
0.0
 10
154.080849007688
 20
107.0532292712637
 10
154.1063857775953
 20
107.0545211820515
 10
154.1311796987995
 20
107.0582892551829
 10
154.1551123461452
 20
107.0644258314254
 10
154.1780652944767
 20
107.0728124856234
 10
154.199898586792
 20
107.0833200266982
 10
154.2204937979356
 20
107.0958192635711
 10
154.2397217368287
 20
107.1101810051631
 10
154.2574639783157
 20
107.126297592242
 10
154.2735697994714
 20
107.144039833729
 10
154.2879530729099
 20
107.1632785385454
 10
154.3004738416292
 20
107.1839060474586
 10
154.3109921486272
 20
107.2057824034669
 10
154.3193895687485
 20
107.2287891814146
 10
154.3255476768374
 20
107.2527971902228
 10
154.329326515892
 20
107.2776987706594
 10
154.3306184266799
 20
107.3033539657222
 10
154.3306184266799
 20
107.3033539657222
 10
154.329326515892
 20
107.3288907356295
 10
154.3255369109142
 20
107.353695422757
 10
154.3193895687485
 20
107.3776280701026
 10
154.310981382704
 20
107.4005702525109
 10
154.3004738416292
 20
107.4224035448262
 10
154.2879530729099
 20
107.4429987559698
 10
154.2735805653946
 20
107.4622266948629
 10
154.2574639783157
 20
107.4799581704267
 10
154.2397217368287
 20
107.4960747575056
 10
154.2204937979356
 20
107.5104580309441
 10
154.199898586792
 20
107.5229680337401
 10
154.1780652944767
 20
107.5334863407382
 10
154.1551123461452
 20
107.5418837608595
 10
154.1311796987995
 20
107.5480418689484
 10
154.1063857775953
 20
107.551820708003
 10
154.080849007688
 20
107.5531126187909
 10
154.080849007688
 20
107.5531126187909
 10
154.0552476422413
 20
107.551820708003
 10
154.0304106573442
 20
107.5480418689484
 10
154.0064134144591
 20
107.5418837608595
 10
153.9834174024347
 20
107.5334863407382
 10
153.9615625782729
 20
107.5229680337401
 10
153.9409350693596
 20
107.5104580309441
 10
153.9216963645433
 20
107.4960747575056
 10
153.9039325912098
 20
107.4799581704267
 10
153.8877944722844
 20
107.4622159289397
 10
153.8734004329227
 20
107.4429879900466
 10
153.8608796642034
 20
107.4224035448262
 10
153.8503613572054
 20
107.4005702525109
 10
153.8419531711608
 20
107.3776280701026
 10
153.8358058289951
 20
107.3536846568337
 10
153.8320162240173
 20
107.3288907356295
 10
153.8307243132294
 20
107.3033539657222
 10
153.8307243132294
 20
107.3033539657222
 10
153.8320054580941
 20
107.2777095365826
 10
153.8358058289951
 20
107.2528079561461
 10
153.8419531711608
 20
107.2287891814146
 10
153.8503505912821
 20
107.2057716375437
 10
153.8608796642034
 20
107.1839060474586
 10
153.8733896669995
 20
107.1632785385454
 10
153.8877944722844
 20
107.1440505996523
 10
153.9039325912098
 20
107.1263083581653
 10
153.9216855986201
 20
107.1101810051631
 10
153.9409350693596
 20
107.0958084976479
 10
153.9615625782729
 20
107.0833200266982
 10
153.9834281683579
 20
107.0728124856234
 10
154.0064134144591
 20
107.0644258314254
 10
154.0303998914209
 20
107.0582892551829
 10
154.0552476422413
 20
107.0545104161283
 10
154.080849007688
 20
107.0532292712637
  0
HATCH
  5
79
330
1F
100
AcDbEntity
  8
ISS138金台
  6
Continuous
 62
   250
420
  2367521
370
    13
100
AcDbHatch
 10
0.0
 20
0.0
 30
0.0
210
0.0
220
0.0
230
1.0
  2
SOLID
 70
     1
 71
     0
 91
        1
 92
        3
 72
     0
 73
     1
 93
       67
 10
154.080849007688
 20
101.7119640757382
 10
154.1063857775953
 20
101.7132452206028
 10
154.1311796987995
 20
101.7170240596574
 10
154.1551123461452
 20
101.7231606358998
 10
154.1780652944767
 20
101.7315365241747
 10
154.199898586792
 20
101.742022533403
 10
154.2204937979356
 20
101.7545110043526
 10
154.2397217368287
 20
101.7688619800214
 10
154.2574639783157
 20
101.7849462693306
 10
154.2735697994714
 20
101.8026454471247
 10
154.2879530729099
 20
101.8218518541714
 10
154.3004738416292
 20
101.8424147675453
 10
154.3109921486272
 20
101.8642157620909
 10
154.3193895687485
 20
101.8871471785759
 10
154.3255476768374
 20
101.9110582940751
 10
154.329326515892
 20
101.9358414493561
 10
154.3306184266799
 20
101.9613782192634
 10
154.3306184266799
 20
101.9613782192634
 10
154.329326515892
 20
101.9870334143262
 10
154.3255369109142
 20
102.0119349947628
 10
154.3193895687485
 20
102.0359322376478
 10
154.310981382704
 20
102.0589390155955
 10
154.3004738416292
 20
102.0808153716037
 10
154.2879530729099
 20
102.101442880517
 10
154.2735805653946
 20
102.1206815853333
 10
154.2574639783157
 20
102.1384238268204
 10
154.2397217368287
 20
102.1545404138993
 10
154.2204937979356
 20
102.1689021554913
 10
154.199898586792
 20
102.1814121582874
 10
154.1780652944767
 20
102.191908933439
 10
154.1551123461452
 20
102.200295587637
 10
154.1311796987995
 20
102.2064321638795
 10
154.1063857775953
 20
102.210211002934
 10
154.080849007688
 20
102.2114921477987
 10
154.080849007688
 20
102.2114921477987
 10
154.0552476422413
 20
102.2102002370108
 10
154.0304106573442
 20
102.2064429298027
 10
154.0064134144591
 20
102.2002848217138
 10
153.9834174024347
 20
102.1918981675157
 10
153.9615625782729
 20
102.1814013923641
 10
153.9409350693596
 20
102.1689129214145
 10
153.9216963645433
 20
102.1545404138993
 10
153.9039325912098
 20
102.1384238268204
 10
153.8877944722844
 20
102.1206815853333
 10
153.8734004329227
 20
102.101442880517
 10
153.8608796642034
 20
102.080826137527
 10
153.8503613572054
 20
102.0589497815187
 10
153.8419531711608
 20
102.035943003571
 10
153.8358058289951
 20
102.0119349947628
 10
153.8320162240173
 20
101.9870334143262
 10
153.8307243132294
 20
101.9613782192634
 10
153.8307243132294
 20
101.9613782192634
 10
153.8320054580941
 20
101.9358522152793
 10
153.8358058289951
 20
101.9110582940751
 10
153.8419531711608
 20
101.8871471785759
 10
153.8503505912821
 20
101.8642157620909
 10
153.8608796642034
 20
101.842404001622
 10
153.8733896669995
 20
101.8218410882481
 10
153.8877944722844
 20
101.802656213048
 10
153.9039325912098
 20
101.7849462693306
 10
153.9216855986201
 20
101.7688512140982
 10
153.9409350693596
 20
101.7545110043526
 10
153.9615625782729
 20
101.742022533403
 10
153.9834281683579
 20
101.7315365241747
 10
154.0064134144591
 20
101.7231606358998
 10
154.0303998914209
 20
101.7170240596574
 10
154.0552476422413
 20
101.7132452206028
 97
        0
 75
     1
 76
     1
 98
        0
  0
LWPOLYLINE
  5
7A
330
1F
100
AcDbEntity
  8
ISS138金台
  6
Continuous
 62
   250
420
  2367521
370
    13
100
AcDbPolyline
 90
       68
 70
     0
 43
0.0
 10
154.080849007688
 20
101.7119640757382
 10
154.1063857775953
 20
101.7132452206028
 10
154.1311796987995
 20
101.7170240596574
 10
154.1551123461452
 20
101.7231606358998
 10
154.1780652944767
 20
101.7315365241747
 10
154.199898586792
 20
101.742022533403
 10
154.2204937979356
 20
101.7545110043526
 10
154.2397217368287
 20
101.7688619800214
 10
154.2574639783157
 20
101.7849462693306
 10
154.2735697994714
 20
101.8026454471247
 10
154.2879530729099
 20
101.8218518541714
 10
154.3004738416292
 20
101.8424147675453
 10
154.3109921486272
 20
101.8642157620909
 10
154.3193895687485
 20
101.8871471785759
 10
154.3255476768374
 20
101.9110582940751
 10
154.329326515892
 20
101.9358414493561
 10
154.3306184266799
 20
101.9613782192634
 10
154.3306184266799
 20
101.9613782192634
 10
154.329326515892
 20
101.9870334143262
 10
154.3255369109142
 20
102.0119349947628
 10
154.3193895687485
 20
102.0359322376478
 10
154.310981382704
 20
102.0589390155955
 10
154.3004738416292
 20
102.0808153716037
 10
154.2879530729099
 20
102.101442880517
 10
154.2735805653946
 20
102.1206815853333
 10
154.2574639783157
 20
102.1384238268204
 10
154.2397217368287
 20
102.1545404138993
 10
154.2204937979356
 20
102.1689021554913
 10
154.199898586792
 20
102.1814121582874
 10
154.1780652944767
 20
102.191908933439
 10
154.1551123461452
 20
102.200295587637
 10
154.1311796987995
 20
102.2064321638795
 10
154.1063857775953
 20
102.210211002934
 10
154.080849007688
 20
102.2114921477987
 10
154.080849007688
 20
102.2114921477987
 10
154.0552476422413
 20
102.2102002370108
 10
154.0304106573442
 20
102.2064429298027
 10
154.0064134144591
 20
102.2002848217138
 10
153.9834174024347
 20
102.1918981675157
 10
153.9615625782729
 20
102.1814013923641
 10
153.9409350693596
 20
102.1689129214145
 10
153.9216963645433
 20
102.1545404138993
 10
153.9039325912098
 20
102.1384238268204
 10
153.8877944722844
 20
102.1206815853333
 10
153.8734004329227
 20
102.101442880517
 10
153.8608796642034
 20
102.080826137527
 10
153.8503613572054
 20
102.0589497815187
 10
153.8419531711608
 20
102.035943003571
 10
153.8358058289951
 20
102.0119349947628
 10
153.8320162240173
 20
101.9870334143262
 10
153.8307243132294
 20
101.9613782192634
 10
153.8307243132294
 20
101.9613782192634
 10
153.8320054580941
 20
101.9358522152793
 10
153.8358058289951
 20
101.9110582940751
 10
153.8419531711608
 20
101.8871471785759
 10
153.8503505912821
 20
101.8642157620909
 10
153.8608796642034
 20
101.842404001622
 10
153.8733896669995
 20
101.8218410882481
 10
153.8877944722844
 20
101.802656213048
 10
153.9039325912098
 20
101.7849462693306
 10
153.9216855986201
 20
101.7688512140982
 10
153.9409350693596
 20
101.7545110043526
 10
153.9615625782729
 20
101.742022533403
 10
153.9834281683579
 20
101.7315365241747
 10
154.0064134144591
 20
101.7231606358998
 10
154.0303998914209
 20
101.7170240596574
 10
154.0552476422413
 20
101.7132452206028
 10
154.080849007688
 20
101.7119640757382
  0
HATCH
  5
7B
330
1F
100
AcDbEntity
  8
ISS138金台
  6
Continuous
 62
   250
420
  2367521
370
    13
100
AcDbHatch
 10
0.0
 20
0.0
 30
0.0
210
0.0
220
0.0
230
1.0
  2
SOLID
 70
     1
 71
     0
 91
        1
 92
        3
 72
     0
 73
     1
 93
       67
 10
142.149127012134
 20
91.55098883568118
 10
142.1746530161181
 20
91.55226998054584
 10
142.1994684691688
 20
91.55604881960042
 10
142.2233903505912
 20
91.56218539584289
 10
142.2463432989227
 20
91.57057205004094
 10
142.268176591238
 20
91.58107959111577
 10
142.2887718023816
 20
91.59356806206537
 10
142.3079997412747
 20
91.60794056958062
 10
142.3257312168385
 20
91.62405715665955
 10
142.3418585698407
 20
91.64179939814656
 10
142.3562310773559
 20
91.6610488688861
 10
142.3687518460752
 20
91.68166561187617
 10
142.3792701530733
 20
91.70354196788443
 10
142.3876675731946
 20
91.72654874583208
 10
142.3938256812835
 20
91.75055675464036
 10
142.3976045203381
 20
91.77545833507692
 10
142.3988964311259
 20
91.80111353013976
 10
142.3988964311259
 20
91.80111353013976
 10
142.3976045203381
 20
91.82663953412379
 10
142.3938149153603
 20
91.85143345532802
 10
142.3876675731946
 20
91.87534457082721
 10
142.3792701530733
 20
91.89826522138901
 10
142.368741080152
 20
91.92007698185787
 10
142.3562310773559
 20
91.94063989523178
 10
142.3418585698407
 20
91.95983553635516
 10
142.3257312168385
 20
91.97754548007248
 10
142.3079997412747
 20
91.9936297693817
 10
142.2887718023816
 20
92.00796997912727
 10
142.268176591238
 20
92.02045845007686
 10
142.2463432989227
 20
92.03094445930523
 10
142.2233903505912
 20
92.03932034758003
 10
142.1994577032456
 20
92.04545692382251
 10
142.1746637820413
 20
92.04923576287709
 10
142.149127012134
 20
92.05051690774175
 10
142.149127012134
 20
92.05051690774175
 10
142.1235256466874
 20
92.04923576287709
 10
142.098677895867
 20
92.04545692382251
 10
142.074680652982
 20
92.03932034758003
 10
142.051706172804
 20
92.03094445930523
 10
142.0298298167957
 20
92.02045845007686
 10
142.0092130738057
 20
92.00796997912727
 10
141.9899636030661
 20
91.9936297693817
 10
141.9722105956559
 20
91.97754548007248
 10
141.9560724767305
 20
91.95983553635516
 10
141.9416784373688
 20
91.94063989523178
 10
141.9291576686495
 20
91.92007698185787
 10
141.9186393616514
 20
91.89827598731225
 10
141.9102311756069
 20
91.87534457082721
 10
141.9040838334412
 20
91.85143345532802
 10
141.9002942284634
 20
91.82663953412379
 10
141.8990023176755
 20
91.80111353013976
 10
141.8990023176755
 20
91.80111353013976
 10
141.9002942284634
 20
91.77544756915368
 10
141.9040838334412
 20
91.75055675464036
 10
141.9102419415301
 20
91.72654874583208
 10
141.9186393616514
 20
91.70354196788443
 10
141.9291576686495
 20
91.68166561187617
 10
141.9416784373688
 20
91.6610488688861
 10
141.9560724767305
 20
91.64179939814656
 10
141.9722105956559
 20
91.62405715665955
 10
141.9899636030661
 20
91.60794056958062
 10
142.0092130738057
 20
91.59356806206537
 10
142.029840582719
 20
91.58107959111577
 10
142.051706172804
 20
91.57057205004094
 10
142.0746914189052
 20
91.56218539584289
 10
142.098677895867
 20
91.55604881960042
 10
142.1235256466874
 20
91.55226998054584
 97
        0
 75
     1
 76
     1
 98
        0
  0
LWPOLYLINE
  5
7C
330
1F
100
AcDbEntity
  8
ISS138金台
  6
Continuous
 62
   250
420
  2367521
370
    13
100
AcDbPolyline
 90
       68
 70
     0
 43
0.0
 10
142.149127012134
 20
91.55098883568118
 10
142.1746530161181
 20
91.55226998054584
 10
142.1994684691688
 20
91.55604881960042
 10
142.2233903505912
 20
91.56218539584289
 10
142.2463432989227
 20
91.57057205004094
 10
142.268176591238
 20
91.58107959111577
 10
142.2887718023816
 20
91.59356806206537
 10
142.3079997412747
 20
91.60794056958062
 10
142.3257312168385
 20
91.62405715665955
 10
142.3418585698407
 20
91.64179939814656
 10
142.3562310773559
 20
91.6610488688861
 10
142.3687518460752
 20
91.68166561187617
 10
142.3792701530733
 20
91.70354196788443
 10
142.3876675731946
 20
91.72654874583208
 10
142.3938256812835
 20
91.75055675464036
 10
142.3976045203381
 20
91.77545833507692
 10
142.3988964311259
 20
91.80111353013976
 10
142.3988964311259
 20
91.80111353013976
 10
142.3976045203381
 20
91.82663953412379
 10
142.3938149153603
 20
91.85143345532802
 10
142.3876675731946
 20
91.87534457082721
 10
142.3792701530733
 20
91.89826522138901
 10
142.368741080152
 20
91.92007698185787
 10
142.3562310773559
 20
91.94063989523178
 10
142.3418585698407
 20
91.95983553635516
 10
142.3257312168385
 20
91.97754548007248
 10
142.3079997412747
 20
91.9936297693817
 10
142.2887718023816
 20
92.00796997912727
 10
142.268176591238
 20
92.02045845007686
 10
142.2463432989227
 20
92.03094445930523
 10
142.2233903505912
 20
92.03932034758003
 10
142.1994577032456
 20
92.04545692382251
 10
142.1746637820413
 20
92.04923576287709
 10
142.149127012134
 20
92.05051690774175
 10
142.149127012134
 20
92.05051690774175
 10
142.1235256466874
 20
92.04923576287709
 10
142.098677895867
 20
92.04545692382251
 10
142.074680652982
 20
92.03932034758003
 10
142.051706172804
 20
92.03094445930523
 10
142.0298298167957
 20
92.02045845007686
 10
142.0092130738057
 20
92.00796997912727
 10
141.9899636030661
 20
91.9936297693817
 10
141.9722105956559
 20
91.97754548007248
 10
141.9560724767305
 20
91.95983553635516
 10
141.9416784373688
 20
91.94063989523178
 10
141.9291576686495
 20
91.92007698185787
 10
141.9186393616514
 20
91.89827598731225
 10
141.9102311756069
 20
91.87534457082721
 10
141.9040838334412
 20
91.85143345532802
 10
141.9002942284634
 20
91.82663953412379
 10
141.8990023176755
 20
91.80111353013976
 10
141.8990023176755
 20
91.80111353013976
 10
141.9002942284634
 20
91.77544756915368
 10
141.9040838334412
 20
91.75055675464036
 10
141.9102419415301
 20
91.72654874583208
 10
141.9186393616514
 20
91.70354196788443
 10
141.9291576686495
 20
91.68166561187617
 10
141.9416784373688
 20
91.6610488688861
 10
141.9560724767305
 20
91.64179939814656
 10
141.9722105956559
 20
91.62405715665955
 10
141.9899636030661
 20
91.60794056958062
 10
142.0092130738057
 20
91.59356806206537
 10
142.029840582719
 20
91.58107959111577
 10
142.051706172804
 20
91.57057205004094
 10
142.0746914189052
 20
91.56218539584289
 10
142.098677895867
 20
91.55604881960042
 10
142.1235256466874
 20
91.55226998054584
 10
142.149127012134
 20
91.55098883568118
  0
HATCH
  5
7D
330
1F
100
AcDbEntity
  8
ISS138金台
  6
Continuous
 62
   250
420
  2367521
370
    13
100
AcDbHatch
 10
0.0
 20
0.0
 30
0.0
210
0.0
220
0.0
230
1.0
  2
SOLID
 70
     1
 71
     0
 91
        1
 92
        3
 72
     0
 73
     1
 93
       67
 10
99.10849469006078
 20
91.52892945897798
 10
99.13402069404482
 20
91.53022136976587
 10
99.15883614709551
 20
91.53397867697399
 10
99.18275802851794
 20
91.54013678506291
 10
99.20570021092621
 20
91.54851267333774
 10
99.22754426916475
 20
91.55902021441256
 10
99.24812871438513
 20
91.57151945128538
 10
99.26736741920143
 20
91.58588119287742
 10
99.28509889476521
 20
91.60199777995635
 10
99.30122624776737
 20
91.61975078736658
 10
99.31559875528264
 20
91.6389894921829
 10
99.32811952400192
 20
91.65960623517296
 10
99.338637831
 20
91.68148259118121
 10
99.34703525112127
 20
91.70448936912888
 10
99.35319335921021
 20
91.72849737793715
 10
99.35697219826478
 20
91.75339895837371
 10
99.35826410905267
 20
91.77905415343653
 10
99.35826410905267
 20
91.77905415343653
 10
99.35697219826478
 20
91.80459092334382
 10
99.35318259328697
 20
91.82937407862482
 10
99.34702448519803
 20
91.85329596004723
 10
99.338637831
 20
91.87620584468581
 10
99.32810875807868
 20
91.8980283710779
 10
99.31559875528264
 20
91.91858051852856
 10
99.30121548184414
 20
91.93777615965195
 10
99.28509889476521
 20
91.95548610336927
 10
99.26736741920143
 20
91.97157039267849
 10
99.24813948030837
 20
91.98591060242406
 10
99.22754426916475
 20
91.99839907337365
 10
99.20571097684943
 20
92.008885082602
 10
99.18275802851794
 20
92.01726097087683
 10
99.15882538117229
 20
92.0233975471193
 10
99.13403145996804
 20
92.02717638617388
 10
99.10849469006078
 20
92.02845753103853
 10
99.10849469006078
 20
92.02845753103853
 10
99.0829579201535
 20
92.02717638617388
 10
99.05816399894925
 20
92.0233975471193
 10
99.03423135160361
 20
92.01726097087683
 10
99.01126763734888
 20
92.008885082602
 10
98.98943434503357
 20
91.99839907337365
 10
98.96886066573643
 20
91.98591060242406
 10
98.94963272684335
 20
91.97157039267849
 10
98.93187971943311
 20
91.95547533744603
 10
98.91576313235419
 20
91.93777615965195
 10
98.90137985891569
 20
91.91858051852856
 10
98.88886985611963
 20
91.89801760515466
 10
98.87835154912156
 20
91.87621661060903
 10
98.86995412900029
 20
91.85329596004723
 10
98.86379602091134
 20
91.82937407862482
 10
98.86001718185676
 20
91.80459092334382
 10
98.85872527106889
 20
91.77905415343653
 10
98.85872527106889
 20
91.77905415343653
 10
98.86001718185676
 20
91.75340972429694
 10
98.86379602091134
 20
91.72850814386038
 10
98.86995412900029
 20
91.70448936912888
 10
98.87835154912156
 20
91.68147182525799
 10
98.88886985611963
 20
91.6596170010962
 10
98.90139062483891
 20
91.6389894921829
 10
98.91576313235419
 20
91.61975078736658
 10
98.93187971943311
 20
91.60199777995635
 10
98.94962196092011
 20
91.58588119287742
 10
98.9688498998132
 20
91.57151945128538
 10
98.9894451109568
 20
91.55902021441256
 10
99.01127840327212
 20
91.54851267333774
 10
99.03422058568039
 20
91.54012601913968
 10
99.05816399894925
 20
91.53398944289721
 10
99.0829579201535
 20
91.53021060384263
 97
        0
 75
     1
 76
     1
 98
        0
  0
LWPOLYLINE
  5
7E
330
1F
100
AcDbEntity
  8
ISS138金台
  6
Continuous
 62
   250
420
  2367521
370
    13
100
AcDbPolyline
 90
       68
 70
     0
 43
0.0
 10
99.10849469006078
 20
91.52892945897798
 10
99.13402069404482
 20
91.53022136976587
 10
99.15883614709551
 20
91.53397867697399
 10
99.18275802851794
 20
91.54013678506291
 10
99.20570021092621
 20
91.54851267333774
 10
99.22754426916475
 20
91.55902021441256
 10
99.24812871438513
 20
91.57151945128538
 10
99.26736741920143
 20
91.58588119287742
 10
99.28509889476521
 20
91.60199777995635
 10
99.30122624776737
 20
91.61975078736658
 10
99.31559875528264
 20
91.6389894921829
 10
99.32811952400192
 20
91.65960623517296
 10
99.338637831
 20
91.68148259118121
 10
99.34703525112127
 20
91.70448936912888
 10
99.35319335921021
 20
91.72849737793715
 10
99.35697219826478
 20
91.75339895837371
 10
99.35826410905267
 20
91.77905415343653
 10
99.35826410905267
 20
91.77905415343653
 10
99.35697219826478
 20
91.80459092334382
 10
99.35318259328697
 20
91.82937407862482
 10
99.34702448519803
 20
91.85329596004723
 10
99.338637831
 20
91.87620584468581
 10
99.32810875807868
 20
91.8980283710779
 10
99.31559875528264
 20
91.91858051852856
 10
99.30121548184414
 20
91.93777615965195
 10
99.28509889476521
 20
91.95548610336927
 10
99.26736741920143
 20
91.97157039267849
 10
99.24813948030837
 20
91.98591060242406
 10
99.22754426916475
 20
91.99839907337365
 10
99.20571097684943
 20
92.008885082602
 10
99.18275802851794
 20
92.01726097087683
 10
99.15882538117229
 20
92.0233975471193
 10
99.13403145996804
 20
92.02717638617388
 10
99.10849469006078
 20
92.02845753103853
 10
99.10849469006078
 20
92.02845753103853
 10
99.0829579201535
 20
92.02717638617388
 10
99.05816399894925
 20
92.0233975471193
 10
99.03423135160361
 20
92.01726097087683
 10
99.01126763734888
 20
92.008885082602
 10
98.98943434503357
 20
91.99839907337365
 10
98.96886066573643
 20
91.98591060242406
 10
98.94963272684335
 20
91.97157039267849
 10
98.93187971943311
 20
91.95547533744603
 10
98.91576313235419
 20
91.93777615965195
 10
98.90137985891569
 20
91.91858051852856
 10
98.88886985611963
 20
91.89801760515466
 10
98.87835154912156
 20
91.87621661060903
 10
98.86995412900029
 20
91.85329596004723
 10
98.86379602091134
 20
91.82937407862482
 10
98.86001718185676
 20
91.80459092334382
 10
98.85872527106889
 20
91.77905415343653
 10
98.85872527106889
 20
91.77905415343653
 10
98.86001718185676
 20
91.75340972429694
 10
98.86379602091134
 20
91.72850814386038
 10
98.86995412900029
 20
91.70448936912888
 10
98.87835154912156
 20
91.68147182525799
 10
98.88886985611963
 20
91.6596170010962
 10
98.90139062483891
 20
91.6389894921829
 10
98.91576313235419
 20
91.61975078736658
 10
98.93187971943311
 20
91.60199777995635
 10
98.94962196092011
 20
91.58588119287742
 10
98.9688498998132
 20
91.57151945128538
 10
98.9894451109568
 20
91.55902021441256
 10
99.01127840327212
 20
91.54851267333774
 10
99.03422058568039
 20
91.54012601913968
 10
99.05816399894925
 20
91.53398944289721
 10
99.0829579201535
 20
91.53021060384263
 10
99.10849469006078
 20
91.52892945897798
  0
TEXT
  5
7F
330
1F
100
AcDbEntity
  8
ISS138金台
  6
Continuous
 62
    18
420
        0
100
AcDbText
 10
154.6823593976885
 20
108.4621225636019
 30
0.0
 40
2.150533301035563
  1
5 . 4
 50
90.00000250447816
 41
0.5591995239257812
  7
MS Gothic
100
AcDbText
  0
TEXT
  5
80
330
1F
100
AcDbEntity
  8
ISS138金台
  6
Continuous
 62
   250
420
  2367521
100
AcDbText
 10
117.9770993634156
 20
92.94868885809262
 30
0.0
 40
2.150533301035563
  1
 4 3
 41
0.6005001068115233
  7
MS Gothic
100
AcDbText
  0
LINE
  5
81
330
1F
100
AcDbEntity
  8
ISS138金台
  6
Continuous
 62
   250
420
  2367521
370
    13
100
AcDbLine
 10
96.64389494815825
 20
103.0624414860116
 30
0.0
 11
91.61681169032414
 21
103.0624414860116
 31
0.0
  0
HATCH
  5
82
330
1F
100
AcDbEntity
  8
ISS138金台
  6
Continuous
 62
   250
420
  2367521
370
    13
100
AcDbHatch
 10
0.0
 20
0.0
 30
0.0
210
0.0
220
0.0
230
1.0
  2
SOLID
 70
     1
 71
     0
 91
        1
 92
        3
 72
     0
 73
     1
 93
       67
 10
92.10170887271184
 20
102.8536579367655
 10
92.07617210280458
 20
102.8549498475534
 10
92.05137818160034
 20
102.8587609843776
 10
92.02743476833146
 20
102.8649298583898
 10
92.0044925859232
 20
102.8733488103575
 10
91.98265929360787
 20
102.8838886492021
 10
91.96206408246427
 20
102.8964309497678
 10
91.94283614357118
 20
102.9108357550528
 10
91.9251046680074
 20
102.9269846399014
 10
91.90897731500526
 20
102.9447591791581
 10
91.89459404156676
 20
102.9640194158209
 10
91.8820840387707
 20
102.9846469247342
 10
91.87156573177263
 20
103.006501748896
 10
91.86316831165135
 20
103.0294762290739
 10
91.85701020356242
 20
103.053430408266
 10
91.85323136450785
 20
103.0782458613167
 10
91.85193945371995
 20
103.103782631224
 10
91.85193945371995
 20
103.103782631224
 10
91.85324213043108
 20
103.1293301670545
 10
91.85702096948566
 20
103.1541240882588
 10
91.86316831165135
 20
103.1780782674509
 10
91.87157649769587
 20
103.2010635135521
 10
91.8820840387707
 20
103.2229183377139
 10
91.89459404156676
 20
103.2435350807039
 10
91.90897731500526
 20
103.2627953173667
 10
91.9251046680074
 20
103.2805590907002
 10
91.94283614357118
 20
103.296718741472
 10
91.96206408246427
 20
103.311123546757
 10
91.98265929360787
 20
103.3236658473227
 10
92.0044925859232
 20
103.3342164520905
 10
92.0274455342547
 20
103.3426354040582
 10
92.05137818160034
 20
103.3488042780704
 10
92.07617210280458
 20
103.3526046489715
 10
92.10170887271184
 20
103.3538965597593
 10
92.10170887271184
 20
103.3538965597593
 10
92.12731023815851
 20
103.3526046489715
 10
92.15215798897893
 20
103.3488150439937
 10
92.17615523186396
 20
103.3426354040582
 10
92.19914047796516
 20
103.3342164520905
 10
92.22099530212694
 20
103.323676613246
 10
92.24162281104023
 20
103.311123546757
 10
92.2608722817798
 20
103.296718741472
 10
92.27862528919003
 20
103.2805590907002
 10
92.29476340811541
 20
103.2627953173667
 10
92.30915744747713
 20
103.2435350807039
 10
92.32167821619643
 20
103.2229183377139
 10
92.3321965231945
 20
103.2010527476289
 10
92.34060470923902
 20
103.1780890333741
 10
92.34676281732794
 20
103.154134854182
 10
92.35054165638252
 20
103.1293194011313
 10
92.35183356717042
 20
103.103782631224
 10
92.35183356717042
 20
103.103782631224
 10
92.35054165638252
 20
103.0782350953935
 10
92.34676281732794
 20
103.0534196423428
 10
92.34059394331578
 20
103.0294869949972
 10
92.3321965231945
 20
103.006501748896
 10
92.32167821619643
 20
102.9846469247342
 10
92.30915744747713
 20
102.9640194158209
 10
92.29476340811541
 20
102.9447591791581
 10
92.27862528919003
 20
102.9269846399014
 10
92.2608722817798
 20
102.9108357550528
 10
92.24162281104023
 20
102.8964201838446
 10
92.22099530212694
 20
102.8838886492021
 10
92.19912971204192
 20
102.8733380444343
 10
92.17614446594072
 20
102.8649190924666
 10
92.15215798897893
 20
102.8587502184544
 10
92.12731023815851
 20
102.8549498475534
 97
        0
 75
     1
 76
     1
 98
        0
  0
LWPOLYLINE
  5
83
330
1F
100
AcDbEntity
  8
ISS138金台
  6
Continuous
 62
   250
420
  2367521
370
    13
100
AcDbPolyline
 90
       68
 70
     0
 43
0.0
 10
92.10170887271184
 20
102.8536579367655
 10
92.07617210280458
 20
102.8549498475534
 10
92.05137818160034
 20
102.8587609843776
 10
92.02743476833146
 20
102.8649298583898
 10
92.0044925859232
 20
102.8733488103575
 10
91.98265929360787
 20
102.8838886492021
 10
91.96206408246427
 20
102.8964309497678
 10
91.94283614357118
 20
102.9108357550528
 10
91.9251046680074
 20
102.9269846399014
 10
91.90897731500526
 20
102.9447591791581
 10
91.89459404156676
 20
102.9640194158209
 10
91.8820840387707
 20
102.9846469247342
 10
91.87156573177263
 20
103.006501748896
 10
91.86316831165135
 20
103.0294762290739
 10
91.85701020356242
 20
103.053430408266
 10
91.85323136450785
 20
103.0782458613167
 10
91.85193945371995
 20
103.103782631224
 10
91.85193945371995
 20
103.103782631224
 10
91.85324213043108
 20
103.1293301670545
 10
91.85702096948566
 20
103.1541240882588
 10
91.86316831165135
 20
103.1780782674509
 10
91.87157649769587
 20
103.2010635135521
 10
91.8820840387707
 20
103.2229183377139
 10
91.89459404156676
 20
103.2435350807039
 10
91.90897731500526
 20
103.2627953173667
 10
91.9251046680074
 20
103.2805590907002
 10
91.94283614357118
 20
103.296718741472
 10
91.96206408246427
 20
103.311123546757
 10
91.98265929360787
 20
103.3236658473227
 10
92.0044925859232
 20
103.3342164520905
 10
92.0274455342547
 20
103.3426354040582
 10
92.05137818160034
 20
103.3488042780704
 10
92.07617210280458
 20
103.3526046489715
 10
92.10170887271184
 20
103.3538965597593
 10
92.10170887271184
 20
103.3538965597593
 10
92.12731023815851
 20
103.3526046489715
 10
92.15215798897893
 20
103.3488150439937
 10
92.17615523186396
 20
103.3426354040582
 10
92.19914047796516
 20
103.3342164520905
 10
92.22099530212694
 20
103.323676613246
 10
92.24162281104023
 20
103.311123546757
 10
92.2608722817798
 20
103.296718741472
 10
92.27862528919003
 20
103.2805590907002
 10
92.29476340811541
 20
103.2627953173667
 10
92.30915744747713
 20
103.2435350807039
 10
92.32167821619643
 20
103.2229183377139
 10
92.3321965231945
 20
103.2010527476289
 10
92.34060470923902
 20
103.1780890333741
 10
92.34676281732794
 20
103.154134854182
 10
92.35054165638252
 20
103.1293194011313
 10
92.35183356717042
 20
103.103782631224
 10
92.35183356717042
 20
103.103782631224
 10
92.35054165638252
 20
103.0782350953935
 10
92.34676281732794
 20
103.0534196423428
 10
92.34059394331578
 20
103.0294869949972
 10
92.3321965231945
 20
103.006501748896
 10
92.32167821619643
 20
102.9846469247342
 10
92.30915744747713
 20
102.9640194158209
 10
92.29476340811541
 20
102.9447591791581
 10
92.27862528919003
 20
102.9269846399014
 10
92.2608722817798
 20
102.9108357550528
 10
92.24162281104023
 20
102.8964201838446
 10
92.22099530212694
 20
102.8838886492021
 10
92.19912971204192
 20
102.8733380444343
 10
92.17614446594072
 20
102.8649190924666
 10
92.15215798897893
 20
102.8587502184544
 10
92.12731023815851
 20
102.8549498475534
 10
92.10170887271184
 20
102.8536579367655
  0
LINE
  5
84
330
1F
100
AcDbEntity
  8
ISS138金台
  6
Continuous
 62
   250
420
  2367521
370
    13
100
AcDbLine
 10
115.24294243562
 20
106.0272906168312
 30
0.0
 11
91.61671479701505
 21
106.0272906168312
 31
0.0
  0
LINE
  5
85
330
1F
100
AcDbEntity
  8
ISS138金台
  6
Continuous
 62
   250
420
  2367521
370
    13
100
AcDbLine
 10
92.1018918934068
 20
106.1471584061009
 30
0.0
 11
92.1018918934068
 21
103.1471370040809
 31
0.0
  0
HATCH
  5
86
330
1F
100
AcDbEntity
  8
ISS138金台
  6
Continuous
 62
   250
420
  2367521
370
    13
100
AcDbHatch
 10
0.0
 20
0.0
 30
0.0
210
0.0
220
0.0
230
1.0
  2
SOLID
 70
     1
 71
     0
 91
        1
 92
        3
 72
     0
 73
     1
 93
       67
 10
92.10170887271184
 20
105.777876473306
 10
92.07617210280458
 20
105.7791576181707
 10
92.05137818160034
 20
105.782925691302
 10
92.02743476833146
 20
105.7890730334677
 10
92.0044925859232
 20
105.7974596876658
 10
91.98265929360787
 20
105.8079456968941
 10
91.96206408246427
 20
105.8204234019205
 10
91.94283614357118
 20
105.8347743775893
 10
91.9251046680074
 20
105.8508586668985
 10
91.90897731500526
 20
105.8685578446926
 10
91.89459404156676
 20
105.887753485816
 10
91.8820840387707
 20
105.9083163991899
 10
91.87156573177263
 20
105.9301281596587
 10
91.86316831165135
 20
105.9530488102205
 10
91.85701020356242
 20
105.9769706916429
 10
91.85323136450785
 20
106.001753846924
 10
91.85193945371995
 20
106.0272906168312
 10
91.85193945371995
 20
106.0272906168312
 10
91.85324213043108
 20
106.0529458118941
 10
91.85702096948566
 20
106.0778473923306
 10
91.86316831165135
 20
106.1018661670621
 10
91.87157649769587
 20
106.1248514131633
 10
91.8820840387707
 20
106.1467385350948
 10
91.89459404156676
 20
106.1673552780849
 10
91.90897731500526
 20
106.1866047488244
 10
91.9251046680074
 20
106.2043362243882
 10
91.94283614357118
 20
106.2204528114671
 10
91.96206408246427
 20
106.2348253189824
 10
91.98265929360787
 20
106.2473245558552
 10
92.0044925859232
 20
106.2578213310068
 10
92.0274455342547
 20
106.2661972192816
 10
92.05137818160034
 20
106.2723445614473
 10
92.07617210280458
 20
106.2761234005019
 10
92.10170887271184
 20
106.2774045453666
 10
92.10170887271184
 20
106.2774045453666
 10
92.12731023815851
 20
106.2761126345787
 10
92.15215798897893
 20
106.2723445614473
 10
92.17615523186396
 20
106.2661972192816
 10
92.19914047796516
 20
106.2578105650836
 10
92.22099530212694
 20
106.2473245558552
 10
92.24162281104023
 20
106.2348253189824
 10
92.2608722817798
 20
106.2204635773903
 10
92.27862528919003
 20
106.2043362243882
 10
92.29476340811541
 20
106.1865939829012
 10
92.30915744747713
 20
106.1673552780849
 10
92.32167821619643
 20
106.1467385350948
 10
92.3321965231945
 20
106.1248621790865
 10
92.34060470923902
 20
106.1018554011389
 10
92.34676281732794
 20
106.0778473923306
 10
92.35054165638252
 20
106.0529458118941
 10
92.35183356717042
 20
106.0272906168312
 10
92.35183356717042
 20
106.0272906168312
 10
92.35054165638252
 20
106.001753846924
 10
92.34676281732794
 20
105.9769814575662
 10
92.34059394331578
 20
105.9530595761438
 10
92.3321965231945
 20
105.930138925582
 10
92.32167821619643
 20
105.9083271651131
 10
92.30915744747713
 20
105.887753485816
 10
92.29476340811541
 20
105.8685686106158
 10
92.27862528919003
 20
105.8508586668985
 10
92.2608722817798
 20
105.8347743775893
 10
92.24162281104023
 20
105.8204234019205
 10
92.22099530212694
 20
105.8079456968941
 10
92.19912971204192
 20
105.7974489217425
 10
92.17614446594072
 20
105.7890730334677
 10
92.15215798897893
 20
105.7829364572252
 10
92.12731023815851
 20
105.7791576181707
 97
        0
 75
     1
 76
     1
 98
        0
  0
LWPOLYLINE
  5
87
330
1F
100
AcDbEntity
  8
ISS138金台
  6
Continuous
 62
   250
420
  2367521
370
    13
100
AcDbPolyline
 90
       68
 70
     0
 43
0.0
 10
92.10170887271184
 20
105.777876473306
 10
92.07617210280458
 20
105.7791576181707
 10
92.05137818160034
 20
105.782925691302
 10
92.02743476833146
 20
105.7890730334677
 10
92.0044925859232
 20
105.7974596876658
 10
91.98265929360787
 20
105.8079456968941
 10
91.96206408246427
 20
105.8204234019205
 10
91.94283614357118
 20
105.8347743775893
 10
91.9251046680074
 20
105.8508586668985
 10
91.90897731500526
 20
105.8685578446926
 10
91.89459404156676
 20
105.887753485816
 10
91.8820840387707
 20
105.9083163991899
 10
91.87156573177263
 20
105.9301281596587
 10
91.86316831165135
 20
105.9530488102205
 10
91.85701020356242
 20
105.9769706916429
 10
91.85323136450785
 20
106.001753846924
 10
91.85193945371995
 20
106.0272906168312
 10
91.85193945371995
 20
106.0272906168312
 10
91.85324213043108
 20
106.0529458118941
 10
91.85702096948566
 20
106.0778473923306
 10
91.86316831165135
 20
106.1018661670621
 10
91.87157649769587
 20
106.1248514131633
 10
91.8820840387707
 20
106.1467385350948
 10
91.89459404156676
 20
106.1673552780849
 10
91.90897731500526
 20
106.1866047488244
 10
91.9251046680074
 20
106.2043362243882
 10
91.94283614357118
 20
106.2204528114671
 10
91.96206408246427
 20
106.2348253189824
 10
91.98265929360787
 20
106.2473245558552
 10
92.0044925859232
 20
106.2578213310068
 10
92.0274455342547
 20
106.2661972192816
 10
92.05137818160034
 20
106.2723445614473
 10
92.07617210280458
 20
106.2761234005019
 10
92.10170887271184
 20
106.2774045453666
 10
92.10170887271184
 20
106.2774045453666
 10
92.12731023815851
 20
106.2761126345787
 10
92.15215798897893
 20
106.2723445614473
 10
92.17615523186396
 20
106.2661972192816
 10
92.19914047796516
 20
106.2578105650836
 10
92.22099530212694
 20
106.2473245558552
 10
92.24162281104023
 20
106.2348253189824
 10
92.2608722817798
 20
106.2204635773903
 10
92.27862528919003
 20
106.2043362243882
 10
92.29476340811541
 20
106.1865939829012
 10
92.30915744747713
 20
106.1673552780849
 10
92.32167821619643
 20
106.1467385350948
 10
92.3321965231945
 20
106.1248621790865
 10
92.34060470923902
 20
106.1018554011389
 10
92.34676281732794
 20
106.0778473923306
 10
92.35054165638252
 20
106.0529458118941
 10
92.35183356717042
 20
106.0272906168312
 10
92.35183356717042
 20
106.0272906168312
 10
92.35054165638252
 20
106.001753846924
 10
92.34676281732794
 20
105.9769814575662
 10
92.34059394331578
 20
105.9530595761438
 10
92.3321965231945
 20
105.930138925582
 10
92.32167821619643
 20
105.9083271651131
 10
92.30915744747713
 20
105.887753485816
 10
92.29476340811541
 20
105.8685686106158
 10
92.27862528919003
 20
105.8508586668985
 10
92.2608722817798
 20
105.8347743775893
 10
92.24162281104023
 20
105.8204234019205
 10
92.22099530212694
 20
105.8079456968941
 10
92.19912971204192
 20
105.7974489217425
 10
92.17614446594072
 20
105.7890730334677
 10
92.15215798897893
 20
105.7829364572252
 10
92.12731023815851
 20
105.7791576181707
 10
92.10170887271184
 20
105.777876473306
  0
TEXT
  5
88
330
1F
100
AcDbEntity
  8
ISS138金台
  6
Continuous
 62
   250
420
  2367521
100
AcDbText
 10
90.59477779318439
 20
103.7363129015035
 30
0.0
 40
2.150533301035563
  1
3
 50
90.00000250447816
 41
0.8980026245117186
  7
MS Gothic
100
AcDbText
  0
LINE
  5
89
330
1F
100
AcDbEntity
  8
ISS138金台
  6
Continuous
 62
   250
420
  2367521
370
    13
100
AcDbLine
 10
117.0932924274974
 20
113.0408266680469
 30
0.0
 11
117.0932924274974
 21
118.3765904768006
 31
0.0
  0
LINE
  5
8A
330
1F
100
AcDbEntity
  8
ISS138金台
  6
Continuous
 62
   250
420
  2367521
370
    13
100
AcDbLine
 10
124.0933603087494
 20
113.0849238896068
 30
0.0
 11
124.0933603087494
 21
118.3765904768006
 31
0.0
  0
LINE
  5
8B
330
1F
100
AcDbEntity
  8
ISS138金台
  6
Continuous
 62
   250
420
  2367521
370
    13
100
AcDbLine
 10
124.0933603087494
 20
117.8694831947845
 30
0.0
 11
117.0931955341884
 21
117.8694831947845
 31
0.0
  0
HATCH
  5
8C
330
1F
100
AcDbEntity
  8
ISS138金台
  6
Continuous
 62
   250
420
  2367521
370
    13
100
AcDbHatch
 10
0.0
 20
0.0
 30
0.0
210
0.0
220
0.0
230
1.0
  2
SOLID
 70
     1
 71
     0
 91
        1
 92
        3
 72
     0
 73
     1
 93
       67
 10
117.0932924274974
 20
117.5974821443176
 10
117.1188291974047
 20
117.5987632891823
 10
117.143623118609
 20
117.6025636600833
 10
117.1675665318778
 20
117.608711002249
 10
117.1905194802093
 20
117.6171084223703
 10
117.2123420066014
 20
117.6276267293684
 10
117.232937217745
 20
117.6401367321644
 10
117.2521651566381
 20
117.6545092396797
 10
117.2698966322019
 20
117.6706365926818
 10
117.286023985204
 20
117.6883788341689
 10
117.3004072586425
 20
117.707606773062
 10
117.3129172614386
 20
117.7281912182823
 10
117.3234355684367
 20
117.7500352765209
 10
117.3318329885579
 20
117.7729774589291
 10
117.3379910966469
 20
117.7969101062748
 10
117.3417699357014
 20
117.8217147934023
 10
117.3430618464893
 20
117.8472515633095
 10
117.3430618464893
 20
117.8472515633095
 10
117.3417591697782
 20
117.8728529287562
 10
117.3379803307237
 20
117.8977006795766
 10
117.3318329885579
 20
117.9216871565384
 10
117.3234355684367
 20
117.9446616367164
 10
117.3129172614386
 20
117.9665379927246
 10
117.3003964927193
 20
117.9871655016379
 10
117.286023985204
 20
118.0064149723775
 10
117.2698966322019
 20
118.0241679797877
 10
117.2521651566381
 20
118.0403060987131
 10
117.232937217745
 20
118.0546893721516
 10
117.2123420066014
 20
118.0672101408709
 10
117.1905087142861
 20
118.0777284478689
 10
117.1675665318778
 20
118.0861366339135
 10
117.143623118609
 20
118.0922947420024
 10
117.1188291974047
 20
118.096073581057
 10
117.0932924274974
 20
118.0973654918449
 10
117.0932924274974
 20
118.0973654918449
 10
117.0677664235134
 20
118.096073581057
 10
117.0429509704627
 20
118.0922947420024
 10
117.0190290890403
 20
118.0861366339135
 10
116.996086906632
 20
118.0777284478689
 10
116.9742428483935
 20
118.0672101408709
 10
116.9536476372499
 20
118.0546893721516
 10
116.9344196983568
 20
118.0402953327899
 10
116.9166774568698
 20
118.0241679797877
 10
116.9005716357141
 20
118.0064149723775
 10
116.8861775963524
 20
117.9871547357147
 10
116.8736675935563
 20
117.9665379927246
 10
116.8631492865582
 20
117.9446724026396
 10
116.854751866437
 20
117.9216871565384
 10
116.848593758348
 20
117.8977006795766
 10
116.8448149192934
 20
117.8728529287562
 10
116.8435230085055
 20
117.8472515633095
 10
116.8435230085055
 20
117.8472515633095
 10
116.8448149192934
 20
117.8217255593255
 10
116.848593758348
 20
117.796920872198
 10
116.854751866437
 20
117.7729774589291
 10
116.8631492865582
 20
117.7500352765209
 10
116.8736675935563
 20
117.7282019842056
 10
116.8861775963524
 20
117.707606773062
 10
116.9005608697909
 20
117.6883788341689
 10
116.9166774568698
 20
117.6706365926818
 10
116.9344196983568
 20
117.6545200056029
 10
116.9536476372499
 20
117.6401367321644
 10
116.9742428483935
 20
117.6276267293684
 10
116.9960761407088
 20
117.6171084223703
 10
117.0190183231171
 20
117.608711002249
 10
117.0429617363859
 20
117.6025528941601
 10
117.0677556575902
 20
117.5987740551055
 97
        0
 75
     1
 76
     1
 98
        0
  0
LWPOLYLINE
  5
8D
330
1F
100
AcDbEntity
  8
ISS138金台
  6
Continuous
 62
   250
420
  2367521
370
    13
100
AcDbPolyline
 90
       68
 70
     0
 43
0.0
 10
117.0932924274974
 20
117.5974821443176
 10
117.1188291974047
 20
117.5987632891823
 10
117.143623118609
 20
117.6025636600833
 10
117.1675665318778
 20
117.608711002249
 10
117.1905194802093
 20
117.6171084223703
 10
117.2123420066014
 20
117.6276267293684
 10
117.232937217745
 20
117.6401367321644
 10
117.2521651566381
 20
117.6545092396797
 10
117.2698966322019
 20
117.6706365926818
 10
117.286023985204
 20
117.6883788341689
 10
117.3004072586425
 20
117.707606773062
 10
117.3129172614386
 20
117.7281912182823
 10
117.3234355684367
 20
117.7500352765209
 10
117.3318329885579
 20
117.7729774589291
 10
117.3379910966469
 20
117.7969101062748
 10
117.3417699357014
 20
117.8217147934023
 10
117.3430618464893
 20
117.8472515633095
 10
117.3430618464893
 20
117.8472515633095
 10
117.3417591697782
 20
117.8728529287562
 10
117.3379803307237
 20
117.8977006795766
 10
117.3318329885579
 20
117.9216871565384
 10
117.3234355684367
 20
117.9446616367164
 10
117.3129172614386
 20
117.9665379927246
 10
117.3003964927193
 20
117.9871655016379
 10
117.286023985204
 20
118.0064149723775
 10
117.2698966322019
 20
118.0241679797877
 10
117.2521651566381
 20
118.0403060987131
 10
117.232937217745
 20
118.0546893721516
 10
117.2123420066014
 20
118.0672101408709
 10
117.1905087142861
 20
118.0777284478689
 10
117.1675665318778
 20
118.0861366339135
 10
117.143623118609
 20
118.0922947420024
 10
117.1188291974047
 20
118.096073581057
 10
117.0932924274974
 20
118.0973654918449
 10
117.0932924274974
 20
118.0973654918449
 10
117.0677664235134
 20
118.096073581057
 10
117.0429509704627
 20
118.0922947420024
 10
117.0190290890403
 20
118.0861366339135
 10
116.996086906632
 20
118.0777284478689
 10
116.9742428483935
 20
118.0672101408709
 10
116.9536476372499
 20
118.0546893721516
 10
116.9344196983568
 20
118.0402953327899
 10
116.9166774568698
 20
118.0241679797877
 10
116.9005716357141
 20
118.0064149723775
 10
116.8861775963524
 20
117.9871547357147
 10
116.8736675935563
 20
117.9665379927246
 10
116.8631492865582
 20
117.9446724026396
 10
116.854751866437
 20
117.9216871565384
 10
116.848593758348
 20
117.8977006795766
 10
116.8448149192934
 20
117.8728529287562
 10
116.8435230085055
 20
117.8472515633095
 10
116.8435230085055
 20
117.8472515633095
 10
116.8448149192934
 20
117.8217255593255
 10
116.848593758348
 20
117.796920872198
 10
116.854751866437
 20
117.7729774589291
 10
116.8631492865582
 20
117.7500352765209
 10
116.8736675935563
 20
117.7282019842056
 10
116.8861775963524
 20
117.707606773062
 10
116.9005608697909
 20
117.6883788341689
 10
116.9166774568698
 20
117.6706365926818
 10
116.9344196983568
 20
117.6545200056029
 10
116.9536476372499
 20
117.6401367321644
 10
116.9742428483935
 20
117.6276267293684
 10
116.9960761407088
 20
117.6171084223703
 10
117.0190183231171
 20
117.608711002249
 10
117.0429617363859
 20
117.6025528941601
 10
117.0677556575902
 20
117.5987740551055
 10
117.0932924274974
 20
117.5974821443176
  0
HATCH
  5
8E
330
1F
100
AcDbEntity
  8
ISS138金台
  6
Continuous
 62
   250
420
  2367521
370
    13
100
AcDbHatch
 10
0.0
 20
0.0
 30
0.0
210
0.0
220
0.0
230
1.0
  2
SOLID
 70
     1
 71
     0
 91
        1
 92
        3
 72
     0
 73
     1
 93
       67
 10
124.0933603087494
 20
117.5974821443176
 10
124.1188970786566
 20
117.5987632891823
 10
124.1436909998609
 20
117.6025636600833
 10
124.1676236472065
 20
117.608711002249
 10
124.190576595538
 20
117.6171084223703
 10
124.2124206537766
 20
117.6276267293684
 10
124.2330050989969
 20
117.6401367321644
 10
124.25223303789
 20
117.6545092396797
 10
124.269975279377
 20
117.6706365926818
 10
124.2860918664559
 20
117.6883788341689
 10
124.3004751398944
 20
117.707606773062
 10
124.3129851426905
 20
117.7281912182823
 10
124.3235034496886
 20
117.7500352765209
 10
124.3319008698098
 20
117.7729774589291
 10
124.3380589778988
 20
117.7969101062748
 10
124.3418378169533
 20
117.8217147934023
 10
124.3431297277412
 20
117.8472515633095
 10
124.3431297277412
 20
117.8472515633095
 10
124.3418378169533
 20
117.8728529287562
 10
124.3380589778988
 20
117.8977006795766
 10
124.3318901038866
 20
117.9216871565384
 10
124.3234926837653
 20
117.9446616367164
 10
124.3129851426905
 20
117.9665379927246
 10
124.3004751398944
 20
117.9871655016379
 10
124.2860918664559
 20
118.0064149723775
 10
124.269975279377
 20
118.0241679797877
 10
124.2522222719668
 20
118.0403060987131
 10
124.2330050989969
 20
118.0546893721516
 10
124.2124098878533
 20
118.0672101408709
 10
124.190576595538
 20
118.0777284478689
 10
124.1676344131297
 20
118.0861366339135
 10
124.1436909998609
 20
118.0922947420024
 10
124.1188970786566
 20
118.096073581057
 10
124.0933603087494
 20
118.0973654918449
 10
124.0933603087494
 20
118.0973654918449
 10
124.0678127729188
 20
118.096073581057
 10
124.0430188517146
 20
118.0922947420024
 10
124.0190862043689
 20
118.0861366339135
 10
123.9961440219607
 20
118.0777284478689
 10
123.9743107296454
 20
118.0672101408709
 10
123.9537155185018
 20
118.0546893721516
 10
123.9344875796087
 20
118.0402953327899
 10
123.9167561040449
 20
118.0241679797877
 10
123.9006287510428
 20
118.0064149723775
 10
123.8862562435275
 20
117.9871547357147
 10
123.8737354748082
 20
117.9665379927246
 10
123.8632171678101
 20
117.9446724026396
 10
123.8548197476889
 20
117.9216871565384
 10
123.8486616395999
 20
117.8977006795766
 10
123.8448828005453
 20
117.8728529287562
 10
123.8435908897575
 20
117.8472515633095
 10
123.8435908897575
 20
117.8472515633095
 10
123.8448828005453
 20
117.8217255593255
 10
123.8486724055231
 20
117.796920872198
 10
123.8548197476889
 20
117.7729774589291
 10
123.8632171678101
 20
117.7500352765209
 10
123.8737462407314
 20
117.7282019842056
 10
123.8862562435275
 20
117.707606773062
 10
123.9006287510428
 20
117.6883788341689
 10
123.9167561040449
 20
117.6706365926818
 10
123.9344875796087
 20
117.6545200056029
 10
123.9537155185018
 20
117.6401367321644
 10
123.9743107296454
 20
117.6276267293684
 10
123.9961440219607
 20
117.6171084223703
 10
124.0190862043689
 20
117.608711002249
 10
124.0430296176378
 20
117.6025528941601
 10
124.0678235388421
 20
117.5987740551055
 97
        0
 75
     1
 76
     1
 98
        0
  0
LWPOLYLINE
  5
8F
330
1F
100
AcDbEntity
  8
ISS138金台
  6
Continuous
 62
   250
420
  2367521
370
    13
100
AcDbPolyline
 90
       68
 70
     0
 43
0.0
 10
124.0933603087494
 20
117.5974821443176
 10
124.1188970786566
 20
117.5987632891823
 10
124.1436909998609
 20
117.6025636600833
 10
124.1676236472065
 20
117.608711002249
 10
124.190576595538
 20
117.6171084223703
 10
124.2124206537766
 20
117.6276267293684
 10
124.2330050989969
 20
117.6401367321644
 10
124.25223303789
 20
117.6545092396797
 10
124.269975279377
 20
117.6706365926818
 10
124.2860918664559
 20
117.6883788341689
 10
124.3004751398944
 20
117.707606773062
 10
124.3129851426905
 20
117.7281912182823
 10
124.3235034496886
 20
117.7500352765209
 10
124.3319008698098
 20
117.7729774589291
 10
124.3380589778988
 20
117.7969101062748
 10
124.3418378169533
 20
117.8217147934023
 10
124.3431297277412
 20
117.8472515633095
 10
124.3431297277412
 20
117.8472515633095
 10
124.3418378169533
 20
117.8728529287562
 10
124.3380589778988
 20
117.8977006795766
 10
124.3318901038866
 20
117.9216871565384
 10
124.3234926837653
 20
117.9446616367164
 10
124.3129851426905
 20
117.9665379927246
 10
124.3004751398944
 20
117.9871655016379
 10
124.2860918664559
 20
118.0064149723775
 10
124.269975279377
 20
118.0241679797877
 10
124.2522222719668
 20
118.0403060987131
 10
124.2330050989969
 20
118.0546893721516
 10
124.2124098878533
 20
118.0672101408709
 10
124.190576595538
 20
118.0777284478689
 10
124.1676344131297
 20
118.0861366339135
 10
124.1436909998609
 20
118.0922947420024
 10
124.1188970786566
 20
118.096073581057
 10
124.0933603087494
 20
118.0973654918449
 10
124.0933603087494
 20
118.0973654918449
 10
124.0678127729188
 20
118.096073581057
 10
124.0430188517146
 20
118.0922947420024
 10
124.0190862043689
 20
118.0861366339135
 10
123.9961440219607
 20
118.0777284478689
 10
123.9743107296454
 20
118.0672101408709
 10
123.9537155185018
 20
118.0546893721516
 10
123.9344875796087
 20
118.0402953327899
 10
123.9167561040449
 20
118.0241679797877
 10
123.9006287510428
 20
118.0064149723775
 10
123.8862562435275
 20
117.9871547357147
 10
123.8737354748082
 20
117.9665379927246
 10
123.8632171678101
 20
117.9446724026396
 10
123.8548197476889
 20
117.9216871565384
 10
123.8486616395999
 20
117.8977006795766
 10
123.8448828005453
 20
117.8728529287562
 10
123.8435908897575
 20
117.8472515633095
 10
123.8435908897575
 20
117.8472515633095
 10
123.8448828005453
 20
117.8217255593255
 10
123.8486724055231
 20
117.796920872198
 10
123.8548197476889
 20
117.7729774589291
 10
123.8632171678101
 20
117.7500352765209
 10
123.8737462407314
 20
117.7282019842056
 10
123.8862562435275
 20
117.707606773062
 10
123.9006287510428
 20
117.6883788341689
 10
123.9167561040449
 20
117.6706365926818
 10
123.9344875796087
 20
117.6545200056029
 10
123.9537155185018
 20
117.6401367321644
 10
123.9743107296454
 20
117.6276267293684
 10
123.9961440219607
 20
117.6171084223703
 10
124.0190862043689
 20
117.608711002249
 10
124.0430296176378
 20
117.6025528941601
 10
124.0678235388421
 20
117.5987740551055
 10
124.0933603087494
 20
117.5974821443176
  0
TEXT
  5
90
330
1F
100
AcDbEntity
  8
ISS138金台
  6
Continuous
 62
   250
420
  2367521
100
AcDbText
 10
119.904296515326
 20
118.9509126903974
 30
0.0
 40
2.150533301035563
  1
7
 41
1.137504577636719
  7
MS Gothic
100
AcDbText
  0
LINE
  5
91
330
1F
100
AcDbEntity
  8
ISS138金台
  6
Continuous
 62
   250
420
  2367521
370
    13
100
AcDbLine
 10
125.2778164168558
 20
105.9521767704387
 30
0.0
 11
147.5444371422863
 21
105.9521767704387
 31
0.0
  0
LINE
  5
92
330
1F
100
AcDbEntity
  8
ISS138金台
  6
Continuous
 62
   250
420
  2367521
370
    13
100
AcDbLine
 10
147.3046907978238
 20
106.1326997711997
 30
0.0
 11
147.3046907978238
 21
103.1319678182465
 31
0.0
  0
LINE
  5
93
330
1F
100
AcDbEntity
  8
ISS138金台
  6
Continuous
 62
   250
420
  2367521
370
    13
100
AcDbLine
 10
141.9000358463058
 20
103.1030828462139
 30
0.0
 11
147.5444802059792
 21
103.1030828462139
 31
0.0
  0
HATCH
  5
94
330
1F
100
AcDbEntity
  8
ISS138金台
  6
Continuous
 62
   250
420
  2367521
370
    13
100
AcDbHatch
 10
0.0
 20
0.0
 30
0.0
210
0.0
220
0.0
230
1.0
  2
SOLID
 70
     1
 71
     0
 91
        1
 92
        3
 72
     0
 73
     1
 93
       67
 10
147.221319488312
 20
105.7385808535077
 10
147.2468562582192
 20
105.7398835302188
 10
147.2716609453467
 20
105.7436623692734
 10
147.2955828267691
 20
105.7498420092088
 10
147.3185250091774
 20
105.7582717270998
 10
147.340369067416
 20
105.7688008000211
 10
147.3609642785595
 20
105.7813431005868
 10
147.3801922174526
 20
105.795758671795
 10
147.3979344589396
 20
105.8119183225669
 10
147.4140510460186
 20
105.8296820959004
 10
147.4284235535338
 20
105.8489423325631
 10
147.4409443222531
 20
105.8695698414764
 10
147.4514626292512
 20
105.8914246656382
 10
147.4598600493725
 20
105.9143991458162
 10
147.4660181574614
 20
105.9383533250083
 10
147.469796996516
 20
105.963168778059
 10
147.4710889073039
 20
105.9887055479663
 10
147.4710889073039
 20
105.9887055479663
 10
147.4698077624392
 20
106.0143607430291
 10
147.4660073915382
 20
106.0392623234657
 10
147.4598492834492
 20
106.0632703322739
 10
147.4514626292512
 20
106.0862663442984
 10
147.4409335563299
 20
106.1081427003066
 10
147.4284235535338
 20
106.1287594432967
 10
147.4140510460186
 20
106.1480089140362
 10
147.3979344589396
 20
106.1657511555232
 10
147.3801922174526
 20
106.1818677426022
 10
147.3609642785595
 20
106.1962402501174
 10
147.340369067416
 20
106.208728721067
 10
147.3185357751006
 20
106.2192362621418
 10
147.2955935926923
 20
106.2276229163399
 10
147.2716501794235
 20
106.2337594925824
 10
147.2468562582192
 20
106.2375383316369
 10
147.221319488312
 20
106.2388194765016
 10
147.221319488312
 20
106.2388194765016
 10
147.1957288887886
 20
106.2375383316369
 10
147.1708703720449
 20
106.2337594925824
 10
147.1468838950831
 20
106.2276121504167
 10
147.1238986489819
 20
106.2192254962186
 10
147.1020222929736
 20
106.208728721067
 10
147.0814055499836
 20
106.1962402501174
 10
147.062156079244
 20
106.1818677426022
 10
147.0444030718338
 20
106.1657511555232
 10
147.0282649529084
 20
106.1480089140362
 10
147.0138709135467
 20
106.1287594432967
 10
147.0013609107506
 20
106.1081427003066
 10
146.9908318378293
 20
106.0862663442984
 10
146.9824236517848
 20
106.0632595663507
 10
146.9762763096191
 20
106.0392515575424
 10
146.9724867046413
 20
106.0143607430291
 10
146.9711947938534
 20
105.9887055479663
 10
146.9711947938534
 20
105.9887055479663
 10
146.9724867046413
 20
105.9631580121358
 10
146.9762763096191
 20
105.9383533250083
 10
146.9824236517848
 20
105.9143991458162
 10
146.9908318378293
 20
105.8914246656382
 10
147.0013609107506
 20
105.8695590755532
 10
147.0138601476235
 20
105.8489423325631
 10
147.0282649529084
 20
105.8296820959004
 10
147.0444030718338
 20
105.8119183225669
 10
147.062156079244
 20
105.795758671795
 10
147.0814055499836
 20
105.7813538665101
 10
147.1020222929736
 20
105.7688115659443
 10
147.1238986489819
 20
105.7582609611766
 10
147.1468838950831
 20
105.7498420092088
 10
147.1708703720449
 20
105.7436731351966
 10
147.1957181228653
 20
105.7398727642956
 97
        0
 75
     1
 76
     1
 98
        0
  0
LWPOLYLINE
  5
95
330
1F
100
AcDbEntity
  8
ISS138金台
  6
Continuous
 62
   250
420
  2367521
370
    13
100
AcDbPolyline
 90
       68
 70
     0
 43
0.0
 10
147.221319488312
 20
105.7385808535077
 10
147.2468562582192
 20
105.7398835302188
 10
147.2716609453467
 20
105.7436623692734
 10
147.2955828267691
 20
105.7498420092088
 10
147.3185250091774
 20
105.7582717270998
 10
147.340369067416
 20
105.7688008000211
 10
147.3609642785595
 20
105.7813431005868
 10
147.3801922174526
 20
105.795758671795
 10
147.3979344589396
 20
105.8119183225669
 10
147.4140510460186
 20
105.8296820959004
 10
147.4284235535338
 20
105.8489423325631
 10
147.4409443222531
 20
105.8695698414764
 10
147.4514626292512
 20
105.8914246656382
 10
147.4598600493725
 20
105.9143991458162
 10
147.4660181574614
 20
105.9383533250083
 10
147.469796996516
 20
105.963168778059
 10
147.4710889073039
 20
105.9887055479663
 10
147.4710889073039
 20
105.9887055479663
 10
147.4698077624392
 20
106.0143607430291
 10
147.4660073915382
 20
106.0392623234657
 10
147.4598492834492
 20
106.0632703322739
 10
147.4514626292512
 20
106.0862663442984
 10
147.4409335563299
 20
106.1081427003066
 10
147.4284235535338
 20
106.1287594432967
 10
147.4140510460186
 20
106.1480089140362
 10
147.3979344589396
 20
106.1657511555232
 10
147.3801922174526
 20
106.1818677426022
 10
147.3609642785595
 20
106.1962402501174
 10
147.340369067416
 20
106.208728721067
 10
147.3185357751006
 20
106.2192362621418
 10
147.2955935926923
 20
106.2276229163399
 10
147.2716501794235
 20
106.2337594925824
 10
147.2468562582192
 20
106.2375383316369
 10
147.221319488312
 20
106.2388194765016
 10
147.221319488312
 20
106.2388194765016
 10
147.1957288887886
 20
106.2375383316369
 10
147.1708703720449
 20
106.2337594925824
 10
147.1468838950831
 20
106.2276121504167
 10
147.1238986489819
 20
106.2192254962186
 10
147.1020222929736
 20
106.208728721067
 10
147.0814055499836
 20
106.1962402501174
 10
147.062156079244
 20
106.1818677426022
 10
147.0444030718338
 20
106.1657511555232
 10
147.0282649529084
 20
106.1480089140362
 10
147.0138709135467
 20
106.1287594432967
 10
147.0013609107506
 20
106.1081427003066
 10
146.9908318378293
 20
106.0862663442984
 10
146.9824236517848
 20
106.0632595663507
 10
146.9762763096191
 20
106.0392515575424
 10
146.9724867046413
 20
106.0143607430291
 10
146.9711947938534
 20
105.9887055479663
 10
146.9711947938534
 20
105.9887055479663
 10
146.9724867046413
 20
105.9631580121358
 10
146.9762763096191
 20
105.9383533250083
 10
146.9824236517848
 20
105.9143991458162
 10
146.9908318378293
 20
105.8914246656382
 10
147.0013609107506
 20
105.8695590755532
 10
147.0138601476235
 20
105.8489423325631
 10
147.0282649529084
 20
105.8296820959004
 10
147.0444030718338
 20
105.8119183225669
 10
147.062156079244
 20
105.795758671795
 10
147.0814055499836
 20
105.7813538665101
 10
147.1020222929736
 20
105.7688115659443
 10
147.1238986489819
 20
105.7582609611766
 10
147.1468838950831
 20
105.7498420092088
 10
147.1708703720449
 20
105.7436731351966
 10
147.1957181228653
 20
105.7398727642956
 10
147.221319488312
 20
105.7385808535077
  0
HATCH
  5
96
330
1F
100
AcDbEntity
  8
ISS138金台
  6
Continuous
 62
   250
420
  2367521
370
    13
100
AcDbHatch
 10
0.0
 20
0.0
 30
0.0
210
0.0
220
0.0
230
1.0
  2
SOLID
 70
     1
 71
     0
 91
        1
 92
        3
 72
     0
 73
     1
 93
       67
 10
147.2209749787685
 20
102.8488348031573
 10
147.2465117486758
 20
102.8501267139452
 10
147.2713056698801
 20
102.8539270848463
 10
147.2952490831489
 20
102.8600959588584
 10
147.3181912655572
 20
102.8685256767494
 10
147.3400245578725
 20
102.8790655155939
 10
147.3606197690161
 20
102.8915970502365
 10
147.3798477079092
 20
102.9060126214447
 10
147.3975899493962
 20
102.9221615062933
 10
147.4137065364751
 20
102.93993604555
 10
147.4280898099136
 20
102.9591962822128
 10
147.4405998127097
 20
102.9798237911261
 10
147.4511181197078
 20
103.0016786152879
 10
147.459515539829
 20
103.0246530954658
 10
147.465673647918
 20
103.0486072746579
 10
147.4694524869726
 20
103.0734227277086
 10
147.4707443977604
 20
103.0989594976159
 10
147.4707443977604
 20
103.0989594976159
 10
147.4694524869726
 20
103.1245070334464
 10
147.465673647918
 20
103.1493117205739
 10
147.459515539829
 20
103.173265899766
 10
147.4511073537845
 20
103.1962188480975
 10
147.4405998127097
 20
103.2180844381825
 10
147.4280898099136
 20
103.2387119470958
 10
147.4137065364751
 20
103.2579721837586
 10
147.3975899493962
 20
103.2757359570921
 10
147.3798477079092
 20
103.2918956078639
 10
147.3606090030929
 20
103.3063111790721
 10
147.3400245578725
 20
103.3188427137146
 10
147.3181912655572
 20
103.3293933184824
 10
147.2952490831489
 20
103.3378122704501
 10
147.2713056698801
 20
103.3439811444623
 10
147.2465117486758
 20
103.3477815153634
 10
147.2209749787685
 20
103.3490734261512
 10
147.2209749787685
 20
103.3490734261512
 10
147.1953736133219
 20
103.3477707494401
 10
147.1705150965782
 20
103.3439811444623
 10
147.1465393855397
 20
103.3378122704501
 10
147.1235433735152
 20
103.3293933184824
 10
147.1016777834302
 20
103.3188427137146
 10
147.0810718063634
 20
103.3063004131489
 10
147.0618115697006
 20
103.2918848419407
 10
147.0440585622903
 20
103.2757359570921
 10
147.0279096774418
 20
103.2579721837586
 10
147.0135264040032
 20
103.2387119470958
 10
147.0010056352839
 20
103.2180952041057
 10
146.9904873282859
 20
103.1962296140207
 10
146.9820791422414
 20
103.1732551338428
 10
146.9759318000757
 20
103.1493117205739
 10
146.9721421950979
 20
103.1244962675232
 10
146.97085028431
 20
103.0989594976159
 10
146.97085028431
 20
103.0989594976159
 10
146.9721529610211
 20
103.0734119617854
 10
146.9759210341524
 20
103.0486180405812
 10
146.9820899081646
 20
103.0246530954658
 10
146.9904765623626
 20
103.0016786152879
 10
147.0010056352839
 20
102.9798237911261
 10
147.0135264040032
 20
102.9591962822128
 10
147.027920443365
 20
102.93993604555
 10
147.0440585622903
 20
102.9221615062933
 10
147.0618115697006
 20
102.9060126214447
 10
147.0810610404401
 20
102.8916078161597
 10
147.1016885493534
 20
102.8790655155939
 10
147.1235541394385
 20
102.8685149108262
 10
147.1465393855397
 20
102.8600959588584
 10
147.1705258625014
 20
102.8539270848463
 10
147.1953736133219
 20
102.8501267139452
 97
        0
 75
     1
 76
     1
 98
        0
  0
LWPOLYLINE
  5
97
330
1F
100
AcDbEntity
  8
ISS138金台
  6
Continuous
 62
   250
420
  2367521
370
    13
100
AcDbPolyline
 90
       68
 70
     0
 43
0.0
 10
147.2209749787685
 20
102.8488348031573
 10
147.2465117486758
 20
102.8501267139452
 10
147.2713056698801
 20
102.8539270848463
 10
147.2952490831489
 20
102.8600959588584
 10
147.3181912655572
 20
102.8685256767494
 10
147.3400245578725
 20
102.8790655155939
 10
147.3606197690161
 20
102.8915970502365
 10
147.3798477079092
 20
102.9060126214447
 10
147.3975899493962
 20
102.9221615062933
 10
147.4137065364751
 20
102.93993604555
 10
147.4280898099136
 20
102.9591962822128
 10
147.4405998127097
 20
102.9798237911261
 10
147.4511181197078
 20
103.0016786152879
 10
147.459515539829
 20
103.0246530954658
 10
147.465673647918
 20
103.0486072746579
 10
147.4694524869726
 20
103.0734227277086
 10
147.4707443977604
 20
103.0989594976159
 10
147.4707443977604
 20
103.0989594976159
 10
147.4694524869726
 20
103.1245070334464
 10
147.465673647918
 20
103.1493117205739
 10
147.459515539829
 20
103.173265899766
 10
147.4511073537845
 20
103.1962188480975
 10
147.4405998127097
 20
103.2180844381825
 10
147.4280898099136
 20
103.2387119470958
 10
147.4137065364751
 20
103.2579721837586
 10
147.3975899493962
 20
103.2757359570921
 10
147.3798477079092
 20
103.2918956078639
 10
147.3606090030929
 20
103.3063111790721
 10
147.3400245578725
 20
103.3188427137146
 10
147.3181912655572
 20
103.3293933184824
 10
147.2952490831489
 20
103.3378122704501
 10
147.2713056698801
 20
103.3439811444623
 10
147.2465117486758
 20
103.3477815153634
 10
147.2209749787685
 20
103.3490734261512
 10
147.2209749787685
 20
103.3490734261512
 10
147.1953736133219
 20
103.3477707494401
 10
147.1705150965782
 20
103.3439811444623
 10
147.1465393855397
 20
103.3378122704501
 10
147.1235433735152
 20
103.3293933184824
 10
147.1016777834302
 20
103.3188427137146
 10
147.0810718063634
 20
103.3063004131489
 10
147.0618115697006
 20
103.2918848419407
 10
147.0440585622903
 20
103.2757359570921
 10
147.0279096774418
 20
103.2579721837586
 10
147.0135264040032
 20
103.2387119470958
 10
147.0010056352839
 20
103.2180952041057
 10
146.9904873282859
 20
103.1962296140207
 10
146.9820791422414
 20
103.1732551338428
 10
146.9759318000757
 20
103.1493117205739
 10
146.9721421950979
 20
103.1244962675232
 10
146.97085028431
 20
103.0989594976159
 10
146.97085028431
 20
103.0989594976159
 10
146.9721529610211
 20
103.0734119617854
 10
146.9759210341524
 20
103.0486180405812
 10
146.9820899081646
 20
103.0246530954658
 10
146.9904765623626
 20
103.0016786152879
 10
147.0010056352839
 20
102.9798237911261
 10
147.0135264040032
 20
102.9591962822128
 10
147.027920443365
 20
102.93993604555
 10
147.0440585622903
 20
102.9221615062933
 10
147.0618115697006
 20
102.9060126214447
 10
147.0810610404401
 20
102.8916078161597
 10
147.1016885493534
 20
102.8790655155939
 10
147.1235541394385
 20
102.8685149108262
 10
147.1465393855397
 20
102.8600959588584
 10
147.1705258625014
 20
102.8539270848463
 10
147.1953736133219
 20
102.8501267139452
 10
147.2209749787685
 20
102.8488348031573
  0
TEXT
  5
98
330
1F
100
AcDbEntity
  8
ISS138金台
  6
Continuous
 62
   250
420
  2367521
100
AcDbText
 10
150.9023791552502
 20
103.7363129015035
 30
0.0
 40
2.150533301035563
  1
3
 50
90.00000250447816
 41
0.8980026245117186
  7
MS Gothic
100
AcDbText
  0
LINE
  5
99
330
1F
100
AcDbEntity
  8
ISS138金台
  6
Continuous
 62
   250
420
  2367521
370
    13
100
AcDbLine
 10
116.2128982892439
 20
107.1304317067633
 30
0.0
 11
85.11518452288632
 21
107.2330847847843
 31
0.0
  0
LINE
  5
9A
330
1F
100
AcDbEntity
  8
ISS138金台
  6
Continuous
 62
   250
420
  2367521
370
    13
100
AcDbLine
 10
85.62234025155703
 20
107.2303287084368
 30
0.0
 11
85.59905894256696
 21
101.830356933525
 31
0.0
  0
LINE
  5
9B
330
1F
100
AcDbEntity
  8
ISS138金台
  6
Continuous
 62
   250
420
  2367521
370
    13
100
AcDbLine
 10
98.16281599332595
 20
101.8290973205068
 30
0.0
 11
85.09204855385987
 21
101.8506184010484
 31
0.0
  0
HATCH
  5
9C
330
1F
100
AcDbEntity
  8
ISS138金台
  6
Continuous
 62
   250
420
  2367521
370
    13
100
AcDbHatch
 10
0.0
 20
0.0
 30
0.0
210
0.0
220
0.0
230
1.0
  2
SOLID
 70
     1
 71
     0
 91
        1
 92
        3
 72
     0
 73
     1
 93
       67
 10
85.62113985111662
 20
106.9802147799015
 10
85.59560846417097
 20
106.9816358817682
 10
85.57081992592833
 20
106.985565443748
 10
85.54690342746754
 20
106.9918635088389
 10
85.52398815986736
 20
107.0004224178087
 10
85.50218716532173
 20
107.0110806818088
 10
85.48164578379429
 20
107.0237414075301
 10
85.46246629155576
 20
107.0382646379706
 10
85.44479402856976
 20
107.0545211820515
 10
85.42874203703023
 20
107.0723818486941
 10
85.41444489097759
 20
107.0917282127428
 10
85.40202101556739
 20
107.1124310831187
 10
85.39159421891681
 20
107.1343505028199
 10
85.38329907506623
 20
107.157378812614
 10
85.37725939213286
 20
107.1813652895758
 10
85.37359359527221
 20
107.206202274473
 10
85.37243087556311
 20
107.2317498103035
 10
85.37243087556311
 20
107.2317498103035
 10
85.3738519774298
 20
107.2572865802107
 10
85.37776539052479
 20
107.2820697354918
 10
85.38404730673088
 20
107.3059808509909
 10
85.39257391793095
 20
107.3289015015527
 10
85.40320526712296
 20
107.3507024960984
 10
85.41582292915135
 20
107.3712438776258
 10
85.43030847886055
 20
107.3904179869027
 10
85.44651119332534
 20
107.4080848669271
 10
85.46432879627497
 20
107.4241476243899
 10
85.48361594774582
 20
107.4384447704425
 10
85.50425960554398
 20
107.4508686458527
 10
85.52611981266737
 20
107.4612900595417
 10
85.54907814396049
 20
107.4695798204306
 10
85.57300540834453
 20
107.4756302692873
 10
85.59777241474067
 20
107.4792906831863
 10
85.62325535503179
 20
107.4804534028954
 10
85.62325535503179
 20
107.4804534028954
 10
85.64885133751685
 20
107.4790430669519
 10
85.67368832241401
 20
107.4751242708953
 10
85.69764788456774
 20
107.4688585035741
 10
85.72061159882247
 20
107.4603641901437
 10
85.74243950817618
 20
107.4497382239133
 10
85.76301857043492
 20
107.4371420937314
 10
85.78221421155831
 20
107.4226942247535
 10
85.79990800639078
 20
107.4064915102887
 10
85.81597614681515
 20
107.3887062051088
 10
85.83028944175263
 20
107.3694244365995
 10
85.84271870012445
 20
107.3487753958398
 10
85.85315087973666
 20
107.3269098057547
 10
85.86144602358723
 20
107.3039353255768
 10
85.86749108948223
 20
107.2799811463847
 10
85.87115688634286
 20
107.255165693334
 10
85.87231960605196
 20
107.2296289234267
 10
85.87231960605196
 20
107.2296289234267
 10
85.87090388714691
 20
107.2039737283639
 10
85.86699047405192
 20
107.179104445697
 10
85.86073008969228
 20
107.1551287346584
 10
85.85222501033867
 20
107.1321757863269
 10
85.8416044270699
 20
107.1103424940116
 10
85.82899753096476
 20
107.0897903465609
 10
85.81452813014039
 20
107.0706054713608
 10
85.7983254156756
 20
107.0529278254132
 10
85.78050242976437
 20
107.0368758338736
 10
85.76120451237026
 20
107.022578687821
 10
85.74052855680242
 20
107.0101332805643
 10
85.71862528598609
 20
106.9996903350289
 10
85.69561312507682
 20
106.9913467445238
 10
85.67161049923016
 20
106.985242466051
 10
85.6467412165633
 20
106.9814959247661
 97
        0
 75
     1
 76
     1
 98
        0
  0
LWPOLYLINE
  5
9D
330
1F
100
AcDbEntity
  8
ISS138金台
  6
Continuous
 62
   250
420
  2367521
370
    13
100
AcDbPolyline
 90
       68
 70
     0
 43
0.0
 10
85.62113985111662
 20
106.9802147799015
 10
85.59560846417097
 20
106.9816358817682
 10
85.57081992592833
 20
106.985565443748
 10
85.54690342746754
 20
106.9918635088389
 10
85.52398815986736
 20
107.0004224178087
 10
85.50218716532173
 20
107.0110806818088
 10
85.48164578379429
 20
107.0237414075301
 10
85.46246629155576
 20
107.0382646379706
 10
85.44479402856976
 20
107.0545211820515
 10
85.42874203703023
 20
107.0723818486941
 10
85.41444489097759
 20
107.0917282127428
 10
85.40202101556739
 20
107.1124310831187
 10
85.39159421891681
 20
107.1343505028199
 10
85.38329907506623
 20
107.157378812614
 10
85.37725939213286
 20
107.1813652895758
 10
85.37359359527221
 20
107.206202274473
 10
85.37243087556311
 20
107.2317498103035
 10
85.37243087556311
 20
107.2317498103035
 10
85.3738519774298
 20
107.2572865802107
 10
85.37776539052479
 20
107.2820697354918
 10
85.38404730673088
 20
107.3059808509909
 10
85.39257391793095
 20
107.3289015015527
 10
85.40320526712296
 20
107.3507024960984
 10
85.41582292915135
 20
107.3712438776258
 10
85.43030847886055
 20
107.3904179869027
 10
85.44651119332534
 20
107.4080848669271
 10
85.46432879627497
 20
107.4241476243899
 10
85.48361594774582
 20
107.4384447704425
 10
85.50425960554398
 20
107.4508686458527
 10
85.52611981266737
 20
107.4612900595417
 10
85.54907814396049
 20
107.4695798204306
 10
85.57300540834453
 20
107.4756302692873
 10
85.59777241474067
 20
107.4792906831863
 10
85.62325535503179
 20
107.4804534028954
 10
85.62325535503179
 20
107.4804534028954
 10
85.64885133751685
 20
107.4790430669519
 10
85.67368832241401
 20
107.4751242708953
 10
85.69764788456774
 20
107.4688585035741
 10
85.72061159882247
 20
107.4603641901437
 10
85.74243950817618
 20
107.4497382239133
 10
85.76301857043492
 20
107.4371420937314
 10
85.78221421155831
 20
107.4226942247535
 10
85.79990800639078
 20
107.4064915102887
 10
85.81597614681515
 20
107.3887062051088
 10
85.83028944175263
 20
107.3694244365995
 10
85.84271870012445
 20
107.3487753958398
 10
85.85315087973666
 20
107.3269098057547
 10
85.86144602358723
 20
107.3039353255768
 10
85.86749108948223
 20
107.2799811463847
 10
85.87115688634286
 20
107.255165693334
 10
85.87231960605196
 20
107.2296289234267
 10
85.87231960605196
 20
107.2296289234267
 10
85.87090388714691
 20
107.2039737283639
 10
85.86699047405192
 20
107.179104445697
 10
85.86073008969228
 20
107.1551287346584
 10
85.85222501033867
 20
107.1321757863269
 10
85.8416044270699
 20
107.1103424940116
 10
85.82899753096476
 20
107.0897903465609
 10
85.81452813014039
 20
107.0706054713608
 10
85.7983254156756
 20
107.0529278254132
 10
85.78050242976437
 20
107.0368758338736
 10
85.76120451237026
 20
107.022578687821
 10
85.74052855680242
 20
107.0101332805643
 10
85.71862528598609
 20
106.9996903350289
 10
85.69561312507682
 20
106.9913467445238
 10
85.67161049923016
 20
106.985242466051
 10
85.6467412165633
 20
106.9814959247661
 10
85.62113985111662
 20
106.9802147799015
  0
HATCH
  5
9E
330
1F
100
AcDbEntity
  8
ISS138金台
  6
Continuous
 62
   250
420
  2367521
370
    13
100
AcDbHatch
 10
0.0
 20
0.0
 30
0.0
210
0.0
220
0.0
230
1.0
  2
SOLID
 70
     1
 71
     0
 91
        1
 92
        3
 72
     0
 73
     1
 93
       67
 10
85.59803617985986
 20
101.6396278375396
 10
85.5725047929142
 20
101.6409412801739
 10
85.5477162546716
 20
101.6447524169982
 10
85.52379975621079
 20
101.6509535887801
 10
85.50088448861061
 20
101.659426370364
 10
85.47908349406498
 20
101.6700200388247
 10
85.45854211253754
 20
101.6826269349298
 10
85.43936800326063
 20
101.6970963357542
 10
85.421690357313
 20
101.7133098161422
 10
85.40563836577348
 20
101.7311489509383
 10
85.39134121972084
 20
101.7504737831405
 10
85.37891734431065
 20
101.7711551216699
 10
85.36849593062166
 20
101.7930745413711
 10
85.36019540380948
 20
101.8160813193188
 10
85.3541557208761
 20
101.8400785622038
 10
85.35048992401548
 20
101.8649047811778
 10
85.34932720430638
 20
101.8904523170083
 10
85.34932720430638
 20
101.8904523170083
 10
85.35074830617305
 20
101.9159783209923
 10
85.35466710222964
 20
101.9407722421965
 10
85.36094363547414
 20
101.9646833576957
 10
85.36947024667421
 20
101.9875932423343
 10
85.38010159586621
 20
102.0093942368799
 10
85.39271925789458
 20
102.0299463843306
 10
85.40719942464219
 20
102.0491204936075
 10
85.42340752206857
 20
102.0667981395551
 10
85.4412251250182
 20
102.0828501310946
 10
85.46051765945069
 20
102.0971472771473
 10
85.48115055132561
 20
102.1095711525575
 10
85.50301614141063
 20
102.1199925662465
 10
85.52597447270374
 20
102.1282930930586
 10
85.54990173708777
 20
102.134332775992
 10
85.57466874348393
 20
102.137993189891
 10
85.60015168377504
 20
102.1391559096001
 10
85.60015168377504
 20
102.1391559096001
 10
85.62574766626008
 20
102.1377455736567
 10
85.65059003411888
 20
102.1338267776001
 10
85.67454959627261
 20
102.1275610102788
 10
85.69750792756571
 20
102.1190559309252
 10
85.71933583691943
 20
102.1084299646948
 10
85.73991489917817
 20
102.0958230685897
 10
85.75911054030156
 20
102.0813429018421
 10
85.77680433513402
 20
102.0651186555309
 10
85.7928724755584
 20
102.047290286658
 10
85.80718577049589
 20
102.0279546885326
 10
85.81962041182932
 20
102.0072625840799
 10
85.8300418255183
 20
101.9853216325322
 10
85.83834235233047
 20
101.9622610249684
 10
85.84438741822547
 20
101.9382207183905
 10
85.84805321508611
 20
101.9132976061074
 10
85.84921593479521
 20
101.8876316451214
 10
85.84921593479521
 20
101.8876316451214
 10
85.84779483292854
 20
101.8621702366767
 10
85.84389218575679
 20
101.8374409110119
 10
85.83762103547392
 20
101.8135943910521
 10
85.8291159561203
 20
101.7907383360297
 10
85.81850075581315
 20
101.7690019370235
 10
85.805893859708
 20
101.7485143851122
 10
85.79142984184526
 20
101.7293941054514
 10
85.77522174441887
 20
101.71177028912
 10
85.7573987585076
 20
101.6957613612734
 10
85.73810084111352
 20
101.6815072789137
 10
85.71743026850729
 20
101.6691264671964
 10
85.69552699769096
 20
101.6587265853539
 10
85.67250945382006
 20
101.6504583563114
 10
85.6485068279734
 20
101.6444402052245
 10
85.62363754530654
 20
101.6407797913255
 97
        0
 75
     1
 76
     1
 98
        0
  0
LWPOLYLINE
  5
9F
330
1F
100
AcDbEntity
  8
ISS138金台
  6
Continuous
 62
   250
420
  2367521
370
    13
100
AcDbPolyline
 90
       68
 70
     0
 43
0.0
 10
85.59803617985986
 20
101.6396278375396
 10
85.5725047929142
 20
101.6409412801739
 10
85.5477162546716
 20
101.6447524169982
 10
85.52379975621079
 20
101.6509535887801
 10
85.50088448861061
 20
101.659426370364
 10
85.47908349406498
 20
101.6700200388247
 10
85.45854211253754
 20
101.6826269349298
 10
85.43936800326063
 20
101.6970963357542
 10
85.421690357313
 20
101.7133098161422
 10
85.40563836577348
 20
101.7311489509383
 10
85.39134121972084
 20
101.7504737831405
 10
85.37891734431065
 20
101.7711551216699
 10
85.36849593062166
 20
101.7930745413711
 10
85.36019540380948
 20
101.8160813193188
 10
85.3541557208761
 20
101.8400785622038
 10
85.35048992401548
 20
101.8649047811778
 10
85.34932720430638
 20
101.8904523170083
 10
85.34932720430638
 20
101.8904523170083
 10
85.35074830617305
 20
101.9159783209923
 10
85.35466710222964
 20
101.9407722421965
 10
85.36094363547414
 20
101.9646833576957
 10
85.36947024667421
 20
101.9875932423343
 10
85.38010159586621
 20
102.0093942368799
 10
85.39271925789458
 20
102.0299463843306
 10
85.40719942464219
 20
102.0491204936075
 10
85.42340752206857
 20
102.0667981395551
 10
85.4412251250182
 20
102.0828501310946
 10
85.46051765945069
 20
102.0971472771473
 10
85.48115055132561
 20
102.1095711525575
 10
85.50301614141063
 20
102.1199925662465
 10
85.52597447270374
 20
102.1282930930586
 10
85.54990173708777
 20
102.134332775992
 10
85.57466874348393
 20
102.137993189891
 10
85.60015168377504
 20
102.1391559096001
 10
85.60015168377504
 20
102.1391559096001
 10
85.62574766626008
 20
102.1377455736567
 10
85.65059003411888
 20
102.1338267776001
 10
85.67454959627261
 20
102.1275610102788
 10
85.69750792756571
 20
102.1190559309252
 10
85.71933583691943
 20
102.1084299646948
 10
85.73991489917817
 20
102.0958230685897
 10
85.75911054030156
 20
102.0813429018421
 10
85.77680433513402
 20
102.0651186555309
 10
85.7928724755584
 20
102.047290286658
 10
85.80718577049589
 20
102.0279546885326
 10
85.81962041182932
 20
102.0072625840799
 10
85.8300418255183
 20
101.9853216325322
 10
85.83834235233047
 20
101.9622610249684
 10
85.84438741822547
 20
101.9382207183905
 10
85.84805321508611
 20
101.9132976061074
 10
85.84921593479521
 20
101.8876316451214
 10
85.84921593479521
 20
101.8876316451214
 10
85.84779483292854
 20
101.8621702366767
 10
85.84389218575679
 20
101.8374409110119
 10
85.83762103547392
 20
101.8135943910521
 10
85.8291159561203
 20
101.7907383360297
 10
85.81850075581315
 20
101.7690019370235
 10
85.805893859708
 20
101.7485143851122
 10
85.79142984184526
 20
101.7293941054514
 10
85.77522174441887
 20
101.71177028912
 10
85.7573987585076
 20
101.6957613612734
 10
85.73810084111352
 20
101.6815072789137
 10
85.71743026850729
 20
101.6691264671964
 10
85.69552699769096
 20
101.6587265853539
 10
85.67250945382006
 20
101.6504583563114
 10
85.6485068279734
 20
101.6444402052245
 10
85.62363754530654
 20
101.6407797913255
 10
85.59803617985986
 20
101.6396278375396
  0
TEXT
  5
A0
330
1F
100
AcDbEntity
  8
ISS138金台
  6
Continuous
 62
    18
420
        0
100
AcDbText
 10
86.28171747893174
 20
108.4621225636019
 30
0.0
 40
2.150533301035563
  1
5 . 4
 50
90.00000250447816
 41
0.5591995239257812
  7
MS Gothic
100
AcDbText
  0
LINE
  5
A1
330
1F
100
AcDbEntity
  8
ISS138金台
  6
UserDefined01
 62
   140
420
    44526
370
    13
100
AcDbLine
 10
132.1490377288622
 20
97.34976270489116
 30
0.0
 11
142.1492239054431
 21
97.34976270489116
 31
0.0
  0
TEXT
  5
A2
330
1F
100
AcDbEntity
  8
ISS138金台
  6
Continuous
 62
   140
420
    44526
100
AcDbText
 10
135.9646854749695
 20
98.13893734785124
 30
0.0
 40
1.881716638406118
  1
10
 41
1.235002790178571
  7
MS Gothic
100
AcDbText
  0
TEXT
  5
A3
330
1F
100
AcDbEntity
  8
ISS138金台
  6
Continuous
 62
   140
420
    44526
100
AcDbText
 10
103.3623370435736
 20
98.1386251360775
 30
0.0
 40
1.881716638406118
  1
10
 41
1.11135755266462
  7
MS Gothic
100
AcDbText
  0
HATCH
  5
A4
330
1F
100
AcDbEntity
  8
ISS138金台
  6
Continuous
 62
   140
420
    44526
370
    13
100
AcDbHatch
 10
0.0
 20
0.0
 30
0.0
210
0.0
220
0.0
230
1.0
  2
SOLID
 70
     1
 71
     0
 91
        1
 92
        3
 72
     0
 73
     1
 93
        3
 10
131.2829407366614
 20
105.4629839846813
 10
133.0150808914469
 20
105.4622734337479
 10
132.1500712574925
 20
103.9643890025764
 97
        0
 75
     1
 76
     1
 98
        0
  0
LWPOLYLINE
  5
A5
330
1F
100
AcDbEntity
  8
ISS138金台
  6
Continuous
 62
   140
420
    44526
370
    13
100
AcDbPolyline
 90
        4
 70
     0
 43
0.0
 10
131.2829407366614
 20
105.4629839846813
 10
133.0150808914469
 20
105.4622734337479
 10
132.1500712574925
 20
103.9643890025764
 10
131.2829407366614
 20
105.4629839846813
  0
LINE
  5
A6
330
1F
100
AcDbEntity
  8
ISS138金台
  6
UserDefined01
 62
   140
420
    44526
370
    13
100
AcDbLine
 10
109.1085947392558
 20
97.34976270489116
 30
0.0
 11
99.10839779675169
 21
97.34976270489116
 31
0.0
  0
HATCH
  5
A7
330
1F
100
AcDbEntity
  8
ISS138金台
  6
Continuous
 62
   140
420
    44526
370
    13
100
AcDbHatch
 10
0.0
 20
0.0
 30
0.0
210
0.0
220
0.0
230
1.0
  2
SOLID
 70
     1
 71
     0
 91
        1
 92
        3
 72
     0
 73
     1
 93
        3
 10
109.974519476685
 20
105.4629839846813
 10
108.2423793218994
 20
105.4622734337479
 10
109.1073889558538
 20
103.9643890025764
 97
        0
 75
     1
 76
     1
 98
        0
  0
LWPOLYLINE
  5
A8
330
1F
100
AcDbEntity
  8
ISS138金台
  6
Continuous
 62
   140
420
    44526
370
    13
100
AcDbPolyline
 90
        4
 70
     0
 43
0.0
 10
109.974519476685
 20
105.4629839846813
 10
108.2423793218994
 20
105.4622734337479
 10
109.1073889558538
 20
103.9643890025764
 10
109.974519476685
 20
105.4629839846813
  0
HATCH
  5
A9
330
1F
100
AcDbEntity
  8
ISS138金台
  6
Continuous
 62
     7
420
 16777215
370
    13
100
AcDbHatch
 10
0.0
 20
0.0
 30
0.0
210
0.0
220
0.0
230
1.0
  2
SOLID
 70
     1
 71
     0
 91
        1
 92
        3
 72
     0
 73
     1
 93
      345
 10
120.6361962744349
 20
107.2337522720247
 10
123.773806175365
 20
107.2249349808974
 10
123.7793936895226
 20
107.2239768137297
 10
123.7951657670581
 20
107.2208331641458
 10
123.819669008335
 20
107.2150733952165
 10
123.8513854181777
 20
107.2062991677821
 10
123.888872362873
 20
107.1941229086062
 10
123.9306333790915
 20
107.1780709170667
 10
123.9752043012737
 20
107.1577771517736
 10
124.0211101979367
 20
107.1328217417209
 10
124.0668546057511
 20
107.1027740499792
 10
124.1109733591576
 20
107.067235737389
 10
124.151991526673
 20
107.0257869329443
 10
124.1884341768148
 20
106.9780292974853
 10
124.2188263780998
 20
106.9235321940828
 10
124.2416824331223
 20
106.8618972835773
 10
124.2555166444759
 20
106.7926939290394
 10
124.2588756125244
 20
106.7155237913095
 10
124.2588756125244
 20
106.7155237913095
 10
124.2562702591022
 20
106.6227968945087
 10
124.2541170744557
 20
106.5367664019585
 10
124.252372994892
 20
106.4573354203498
 10
124.2509949567183
 20
106.3843962904502
 10
124.2499398962415
 20
106.3178736507972
 10
124.2491970475385
 20
106.2576490762351
 10
124.2487018150698
 20
106.2036149075316
 10
124.2484219010657
 20
106.1557065491474
 10
124.2483250077566
 20
106.1137948100036
 10
124.2483573055263
 20
106.0777935627145
 10
124.2484972625284
 20
106.0476059139708
 10
124.2487018150698
 20
106.0231242045403
 10
124.2489278994577
 20
106.0042515411139
 10
124.2491324519991
 20
105.9908910303824
 10
124.2492831749243
 20
105.9829565449602
 10
124.2493477704637
 20
105.9803296596914
 10
124.2493477704637
 20
105.9803296596914
 10
124.2283865179302
 20
105.980168170843
 10
124.1689155579944
 20
105.9796837042975
 10
124.0761563634239
 20
105.9789516215177
 10
123.9552335136775
 20
105.9780149861965
 10
123.8113577155996
 20
105.9769491597965
 10
123.649707378265
 20
105.9757541423177
 10
123.4754286129788
 20
105.9745160611459
 10
123.2937213606622
 20
105.9732779799742
 10
123.1097424985435
 20
105.9720829624954
 10
122.9286812016208
 20
105.970995604249
 10
122.755715878969
 20
105.9700482030045
 10
122.5960141737394
 20
105.9693161202247
 10
122.454754495007
 20
105.9688316536792
 10
122.3371044859232
 20
105.9686486329843
 10
122.2482425555629
 20
105.968820887756
 10
122.1933578789241
 20
105.9693914816873
 10
122.1933578789241
 20
105.9693914816873
 10
122.10418373679
 20
105.9666677031095
 10
122.0224273157631
 20
105.9546959964751
 10
121.9478625314554
 20
105.9339285305598
 10
121.880209469863
 20
105.904849771909
 10
121.8192097488281
 20
105.8679118892986
 10
121.7645726884237
 20
105.8235885833508
 10
121.7160506724152
 20
105.7723427887645
 10
121.6733637867987
 20
105.7146482061621
 10
121.6362536494166
 20
105.6509570043191
 10
121.6044403462648
 20
105.581742883858
 10
121.577676261109
 20
105.5074687794776
 10
121.5556814799452
 20
105.4286083918002
 10
121.5381760887693
 20
105.3456138896015
 10
121.5249232372702
 20
105.2589589735039
 10
121.5156214795974
 20
105.1691065782062
 10
121.5100231995166
 20
105.0765196384075
 10
121.5100231995166
 20
105.0765196384075
 10
121.5067718907004
 20
104.9833513387542
 10
121.5047371312095
 20
104.8915503113515
 10
121.5038004958882
 20
104.8012134495083
 10
121.503789729965
 20
104.7124807102268
 10
121.5045864082842
 20
104.6254812845857
 10
121.5060398079206
 20
104.5403443636638
 10
121.5080099718721
 20
104.4571776066934
 10
121.5103784749833
 20
104.3761209706766
 10
121.5129945943287
 20
104.2973144126154
 10
121.5157183729065
 20
104.2208548258188
 10
121.5184098537146
 20
104.1468929332122
 10
121.5209398456742
 20
104.075547159951
 10
121.5231576258601
 20
104.0069466971141
 10
121.5249340031935
 20
103.941209969857
 10
121.5261290206723
 20
103.8784769351817
 10
121.5266027212945
 20
103.8188660182439
 10
121.5266027212945
 20
103.8188660182439
 10
121.5281637801632
 20
103.7611929674879
 10
121.5329007863854
 20
103.6982230825015
 10
121.5410613561956
 20
103.6311406148404
 10
121.552936169521
 20
103.5610759864438
 10
121.5687728425958
 20
103.4892242147907
 10
121.588840523501
 20
103.4167264877437
 10
121.6134191262406
 20
103.344756290935
 10
121.642756267049
 20
103.2744871099971
 10
121.6771426258533
 20
103.2070708987158
 10
121.7168150529647
 20
103.1436703768001
 10
121.7620642283105
 20
103.0854590298825
 10
121.8131485340483
 20
103.0335995776719
 10
121.8703371182589
 20
102.9892547398777
 10
121.933899129023
 20
102.9535764702854
 10
122.0040821825751
 20
102.9277597863741
 10
122.0811769588424
 20
102.9129351100831
 10
122.0811769588424
 20
102.9129351100831
 10
122.2703126981893
 20
102.9041178189558
 10
122.6413817742408
 20
102.8971630325476
 10
123.1676201018409
 20
102.8918877301637
 10
123.8221990002946
 20
102.8880981251859
 10
124.5783759162926
 20
102.8856327287657
 10
125.4093329350629
 20
102.8842977542849
 10
126.2883059714497
 20
102.883931712895
 10
127.1884663447579
 20
102.8843623498243
 10
128.083060735755
 20
102.8853851125314
 10
128.9452927615154
 20
102.8868600440142
 10
129.748376805037
 20
102.8885933576546
 10
130.465505717471
 20
102.8904020327577
 10
131.0699046477384
 20
102.8921138145516
 10
131.5347879788371
 20
102.893567214188
 10
131.8333700937648
 20
102.8945576791254
 10
131.9388438436727
 20
102.8949344864385
 10
132.1297021307368
 20
102.592605830226
 10
132.341360181486
 20
102.8949344864385
 10
135.6430104547083
 20
102.8949344864385
 10
135.7069385068624
 20
102.8912740725395
 10
135.8877306557042
 20
102.8809280203131
 10
136.1689150386883
 20
102.8647468376948
 10
136.534019793269
 20
102.8436671600058
 10
136.9665515250543
 20
102.8185825588743
 10
137.450059903345
 20
102.7903758400054
 10
137.9680730655956
 20
102.7599405750273
 10
138.5040760855675
 20
102.7282026333382
 10
139.0416401644082
 20
102.696044820643
 10
139.5642719077255
 20
102.6643822404165
 10
140.0554886870507
 20
102.6340761665172
 10
140.4988294057613
 20
102.6060632342665
 10
140.8778006694653
 20
102.5812154834461
 10
141.1759521474636
 20
102.560458783454
 10
141.3767904453642
 20
102.5446651740721
 10
141.4638437006215
 20
102.534749758775
 10
141.4638437006215
 20
102.534749758775
 10
141.4921042491066
 20
102.5263738705002
 10
141.5268351174543
 20
102.5148543326415
 10
141.5670027770345
 20
102.5003741658939
 10
141.6115414014469
 20
102.4831163909524
 10
141.6594066961382
 20
102.4632747944351
 10
141.709565132478
 20
102.4410108651904
 10
141.7609508840663
 20
102.4165183898367
 10
141.8125088904263
 20
102.3899803890688
 10
141.8632271547742
 20
102.3615798835817
 10
141.9120183188635
 20
102.3314998940704
 10
141.9578488540639
 20
102.2999126753065
 10
141.9996744658218
 20
102.2670120139082
 10
142.0364400936604
 20
102.2329701646474
 10
142.0671014430263
 20
102.197980914142
 10
142.0906034534427
 20
102.1622272830872
 10
142.1059018303559
 20
102.1258815262546
 10
142.1059018303559
 20
102.1258815262546
 10
142.1160110322712
 20
102.0898372152725
 10
142.1243976864692
 20
102.0547618373813
 10
142.1307280493299
 20
102.0206876903507
 10
142.1346145476168
 20
101.9876686037969
 10
142.1357126717865
 20
101.9557584073361
 10
142.1336563804491
 20
101.9249571009681
 10
142.1280796322147
 20
101.895350812079
 10
142.1186486834631
 20
101.8669395406687
 10
142.1049759609579
 20
101.8397986481998
 10
142.0867169551558
 20
101.8139496665188
 10
142.0635271565132
 20
101.7894356593186
 10
142.0350082258705
 20
101.7663104562154
 10
142.0008371855309
 20
101.7446063549788
 10
141.9606264622578
 20
101.7243664193019
 10
141.9140423124311
 20
101.7056337128775
 10
141.860718694661
 20
101.6884405334753
 10
141.860718694661
 20
101.6884405334753
 10
141.5724288023436
 20
101.6739065371116
 10
140.8617056142328
 20
101.6631190820327
 10
139.7894842558243
 20
101.6556905950023
 10
138.4165491296881
 20
101.6512335027841
 10
136.803759999857
 20
101.6493602321417
 10
135.0119766303639
 20
101.6496832098387
 10
133.1020480193183
 20
101.6518148626387
 10
131.1348231648299
 20
101.6553676173054
 10
129.1711402990849
 20
101.6599539006024
 10
127.2718699520394
 20
101.6651861392933
 10
125.4978395899565
 20
101.6706767601419
 10
123.9099089768691
 20
101.6760381899116
 10
122.5689378768099
 20
101.6808828553662
 10
121.535753756042
 20
101.6848231832692
 10
120.8712271445216
 20
101.6874716003844
 10
120.6361962744349
 20
101.6884405334753
 10
99.44800884511804
 20
101.6884405334753
 10
99.44420847421699
 20
101.6890218933299
 10
99.43342101913812
 20
101.6910135891279
 10
99.41669077443495
 20
101.6948031941057
 10
99.39497590727518
 20
101.7007675155764
 10
99.36929918036589
 20
101.70927259493
 10
99.34062952679798
 20
101.7207167713261
 10
99.30997894335532
 20
101.7354768520777
 10
99.27832712905203
 20
101.7539188785749
 10
99.24667531474876
 20
101.7764519559003
 10
99.21601396538284
 20
101.8034205935975
 10
99.18734431181494
 20
101.835223130826
 10
99.16166758490564
 20
101.8722471408223
 10
99.13995271774587
 20
101.9148478990529
 10
99.12322247304272
 20
101.9634237446775
 10
99.11244578388707
 20
102.0183622509325
 10
99.1086346470628
 20
102.0800186932845
 10
99.1086346470628
 20
102.0800186932845
 10
99.11486811661436
 20
102.1422349636446
 10
99.1326534217943
 20
102.1988529539239
 10
99.16069865181473
 20
102.2501202803566
 10
99.19761500257866
 20
102.2962630273307
 10
99.24208903145174
 20
102.3375395770038
 10
99.29277499802993
 20
102.3741652478404
 10
99.34833792783239
 20
102.4063768901518
 10
99.4074320804551
 20
102.4344328860955
 10
99.46874401326366
 20
102.458548554136
 10
99.53090645400758
 20
102.4789715105079
 10
99.59258442820607
 20
102.4959386055222
 10
99.65245372730149
 20
102.50968668949
 10
99.70916861088982
 20
102.5204526127224
 10
99.76139410449024
 20
102.5284732255305
 10
99.8077844676987
 20
102.5339853782255
 10
99.84700472603436
 20
102.5372259211185
 10
99.84700472603436
 20
102.5372259211185
 10
99.94342433450382
 20
102.5432117744357
 10
100.1513466098913
 20
102.5560339890055
 10
100.4545257740392
 20
102.5746913339673
 10
100.8367160487897
 20
102.5981718125371
 10
101.2816716559852
 20
102.6255064916243
 10
101.7731683493144
 20
102.6556833744447
 10
102.2949495846963
 20
102.6877012301379
 10
102.8307588180501
 20
102.7205803596896
 10
103.3643610371413
 20
102.7533087663162
 10
103.8795212297353
 20
102.7849175169265
 10
104.3599936176745
 20
102.8143838488136
 10
104.7895324228011
 20
102.8407280629633
 10
105.1518918669576
 20
102.862948928515
 10
105.4308369379093
 20
102.8800559805313
 10
105.6101110915754
 20
102.8910479881516
 10
105.6734793157213
 20
102.8949344864385
 10
108.9532532329354
 20
102.8949344864385
 10
109.1426904181329
 20
102.6532825735639
 10
109.3328381542637
 20
102.8949344864385
 10
109.4378920331656
 20
102.8938686600385
 10
109.7351714713821
 20
102.8909941585355
 10
110.1977724267555
 20
102.8867846825516
 10
110.7988339208209
 20
102.8817139327091
 10
111.511473443267
 20
102.8762663755535
 10
112.3088300156289
 20
102.870915711707
 10
113.1639995957489
 20
102.866146407715
 10
114.0501427370085
 20
102.8624429301231
 10
114.9403553972499
 20
102.8602574477069
 10
115.8077765980084
 20
102.8600959588584
 10
116.6255238289725
 20
102.8624213982766
 10
117.3667361116774
 20
102.8677074665838
 10
118.0045094039653
 20
102.8764493962485
 10
118.5120042592179
 20
102.8890993560465
 10
118.8623166352772
 20
102.9061633443699
 10
119.0285855536786
 20
102.9281042959176
 10
119.0285855536786
 20
102.9281042959176
 10
119.0937947506973
 20
102.9566339924834
 10
119.1585194811705
 20
102.9923876235383
 10
119.2222537467064
 20
103.0346761699952
 10
119.28444848522
 20
103.0827675490743
 10
119.3446407620124
 20
103.1359404439192
 10
119.4022707490755
 20
103.1935058354429
 10
119.456864745787
 20
103.2547424067889
 10
119.5078736900622
 20
103.3189288411005
 10
119.5548131153555
 20
103.3853761192909
 10
119.5971662573518
 20
103.4533413926571
 10
119.6344055858127
 20
103.5221356421122
 10
119.6660251023463
 20
103.5910267848764
 10
119.6915080426374
 20
103.6593258018628
 10
119.7103484082941
 20
103.7262898443684
 10
119.7220294350013
 20
103.7912406592295
 10
119.7260343584437
 20
103.8534353977432
 10
119.7260343584437
 20
103.8534353977432
 10
119.7261204858296
 20
103.9188276154568
 10
119.7263681020639
 20
103.9927572102937
 10
119.7267233775306
 20
104.0736308256156
 10
119.7271755463064
 20
104.1598443388608
 10
119.7276707787751
 20
104.2498259252372
 10
119.7281660112437
 20
104.3419714621834
 10
119.7286504777892
 20
104.4346983589842
 10
119.7290703487953
 20
104.5264024930778
 10
119.7293933264922
 20
104.6155120396725
 10
119.7295978790337
 20
104.70040134436
 10
119.7296301768034
 20
104.7795093482718
 10
119.7294471561084
 20
104.8512319288461
 10
119.7290488169488
 20
104.9139757294445
 10
119.7283597978619
 20
104.9661473934288
 10
119.7273693329246
 20
105.0061643300837
 10
119.7260343584437
 20
105.0324224168475
 10
119.7260343584437
 20
105.0324224168475
 10
119.7234290050215
 20
105.0600693077083
 10
119.7180891070982
 20
105.1036928286461
 10
119.7089919019668
 20
105.1608383491637
 10
119.6951253928435
 20
105.2290727706107
 10
119.6754452851746
 20
105.3059522284133
 10
119.6489288162532
 20
105.3890113261514
 10
119.6145747552186
 20
105.4758384970207
 10
119.571328041594
 20
105.5639683446013
 10
119.5181982104421
 20
105.6509677702424
 10
119.4541086694395
 20
105.7343929093703
 10
119.3780797195723
 20
105.8117998974113
 10
119.2890670662867
 20
105.8807448697917
 10
119.1860479468758
 20
105.9387731960144
 10
119.0679995986324
 20
105.9834625433521
 10
118.9338884929263
 20
106.0123582813079
 10
118.7827026329736
 20
106.023016545308
 10
118.7827026329736
 20
106.023016545308
 10
118.623603819445
 20
106.023759394011
 10
118.4671641889549
 20
106.0244161153282
 10
118.3144280360567
 20
106.0249867092595
 10
118.1664504212272
 20
106.0254604098817
 10
118.0242648730968
 20
106.0258695149645
 10
117.8889372180654
 20
106.026214024508
 10
117.7615117506866
 20
106.026493938512
 10
117.6430542973604
 20
106.0267307888231
 10
117.5345876207939
 20
106.0268922776716
 10
117.4371883133103
 20
106.0270214687504
 10
117.3518899035399
 20
106.0271183620595
 10
117.2797366860363
 20
106.0271829575989
 10
117.2217944871995
 20
106.0272152553686
 10
117.179107601583
 20
106.0272367872151
 10
117.1527310896636
 20
106.0272475531383
 10
117.1436984800716
 20
106.0272475531383
 10
117.1436984800716
 20
106.7465619479885
 10
117.1443874991585
 20
106.7520310369906
 10
117.1468528955787
 20
106.7674909027523
 10
117.1517190928797
 20
106.791520443407
 10
117.1595674509162
 20
106.8226770252416
 10
117.1710331591587
 20
106.8595610782359
 10
117.1866868115386
 20
106.9007192027534
 10
117.2071743634499
 20
106.9447195310042
 10
117.2330771747471
 20
106.9901624929682
 10
117.2650196689776
 20
107.035594689009
 10
117.3035939719193
 20
107.0796057831831
 10
117.3494245071197
 20
107.1207531417773
 10
117.4031034003565
 20
107.1576264288483
 10
117.4652443092539
 20
107.1887937766062
 10
117.5364501255131
 20
107.2128233172609
 10
117.617323740835
 20
107.2282831830226
 10
117.708489578767
 20
107.2337522720247
 97
        0
 75
     1
 76
     1
 98
        0
  0
LWPOLYLINE
  5
AA
330
1F
100
AcDbEntity
  8
ISS138金台
  6
Continuous
 62
     7
420
 16777215
370
    13
100
AcDbPolyline
 90
      346
 70
     0
 43
0.0
 10
120.6361962744349
 20
107.2337522720247
 10
123.773806175365
 20
107.2249349808974
 10
123.7793936895226
 20
107.2239768137297
 10
123.7951657670581
 20
107.2208331641458
 10
123.819669008335
 20
107.2150733952165
 10
123.8513854181777
 20
107.2062991677821
 10
123.888872362873
 20
107.1941229086062
 10
123.9306333790915
 20
107.1780709170667
 10
123.9752043012737
 20
107.1577771517736
 10
124.0211101979367
 20
107.1328217417209
 10
124.0668546057511
 20
107.1027740499792
 10
124.1109733591576
 20
107.067235737389
 10
124.151991526673
 20
107.0257869329443
 10
124.1884341768148
 20
106.9780292974853
 10
124.2188263780998
 20
106.9235321940828
 10
124.2416824331223
 20
106.8618972835773
 10
124.2555166444759
 20
106.7926939290394
 10
124.2588756125244
 20
106.7155237913095
 10
124.2588756125244
 20
106.7155237913095
 10
124.2562702591022
 20
106.6227968945087
 10
124.2541170744557
 20
106.5367664019585
 10
124.252372994892
 20
106.4573354203498
 10
124.2509949567183
 20
106.3843962904502
 10
124.2499398962415
 20
106.3178736507972
 10
124.2491970475385
 20
106.2576490762351
 10
124.2487018150698
 20
106.2036149075316
 10
124.2484219010657
 20
106.1557065491474
 10
124.2483250077566
 20
106.1137948100036
 10
124.2483573055263
 20
106.0777935627145
 10
124.2484972625284
 20
106.0476059139708
 10
124.2487018150698
 20
106.0231242045403
 10
124.2489278994577
 20
106.0042515411139
 10
124.2491324519991
 20
105.9908910303824
 10
124.2492831749243
 20
105.9829565449602
 10
124.2493477704637
 20
105.9803296596914
 10
124.2493477704637
 20
105.9803296596914
 10
124.2283865179302
 20
105.980168170843
 10
124.1689155579944
 20
105.9796837042975
 10
124.0761563634239
 20
105.9789516215177
 10
123.9552335136775
 20
105.9780149861965
 10
123.8113577155996
 20
105.9769491597965
 10
123.649707378265
 20
105.9757541423177
 10
123.4754286129788
 20
105.9745160611459
 10
123.2937213606622
 20
105.9732779799742
 10
123.1097424985435
 20
105.9720829624954
 10
122.9286812016208
 20
105.970995604249
 10
122.755715878969
 20
105.9700482030045
 10
122.5960141737394
 20
105.9693161202247
 10
122.454754495007
 20
105.9688316536792
 10
122.3371044859232
 20
105.9686486329843
 10
122.2482425555629
 20
105.968820887756
 10
122.1933578789241
 20
105.9693914816873
 10
122.1933578789241
 20
105.9693914816873
 10
122.10418373679
 20
105.9666677031095
 10
122.0224273157631
 20
105.9546959964751
 10
121.9478625314554
 20
105.9339285305598
 10
121.880209469863
 20
105.904849771909
 10
121.8192097488281
 20
105.8679118892986
 10
121.7645726884237
 20
105.8235885833508
 10
121.7160506724152
 20
105.7723427887645
 10
121.6733637867987
 20
105.7146482061621
 10
121.6362536494166
 20
105.6509570043191
 10
121.6044403462648
 20
105.581742883858
 10
121.577676261109
 20
105.5074687794776
 10
121.5556814799452
 20
105.4286083918002
 10
121.5381760887693
 20
105.3456138896015
 10
121.5249232372702
 20
105.2589589735039
 10
121.5156214795974
 20
105.1691065782062
 10
121.5100231995166
 20
105.0765196384075
 10
121.5100231995166
 20
105.0765196384075
 10
121.5067718907004
 20
104.9833513387542
 10
121.5047371312095
 20
104.8915503113515
 10
121.5038004958882
 20
104.8012134495083
 10
121.503789729965
 20
104.7124807102268
 10
121.5045864082842
 20
104.6254812845857
 10
121.5060398079206
 20
104.5403443636638
 10
121.5080099718721
 20
104.4571776066934
 10
121.5103784749833
 20
104.3761209706766
 10
121.5129945943287
 20
104.2973144126154
 10
121.5157183729065
 20
104.2208548258188
 10
121.5184098537146
 20
104.1468929332122
 10
121.5209398456742
 20
104.075547159951
 10
121.5231576258601
 20
104.0069466971141
 10
121.5249340031935
 20
103.941209969857
 10
121.5261290206723
 20
103.8784769351817
 10
121.5266027212945
 20
103.8188660182439
 10
121.5266027212945
 20
103.8188660182439
 10
121.5281637801632
 20
103.7611929674879
 10
121.5329007863854
 20
103.6982230825015
 10
121.5410613561956
 20
103.6311406148404
 10
121.552936169521
 20
103.5610759864438
 10
121.5687728425958
 20
103.4892242147907
 10
121.588840523501
 20
103.4167264877437
 10
121.6134191262406
 20
103.344756290935
 10
121.642756267049
 20
103.2744871099971
 10
121.6771426258533
 20
103.2070708987158
 10
121.7168150529647
 20
103.1436703768001
 10
121.7620642283105
 20
103.0854590298825
 10
121.8131485340483
 20
103.0335995776719
 10
121.8703371182589
 20
102.9892547398777
 10
121.933899129023
 20
102.9535764702854
 10
122.0040821825751
 20
102.9277597863741
 10
122.0811769588424
 20
102.9129351100831
 10
122.0811769588424
 20
102.9129351100831
 10
122.2703126981893
 20
102.9041178189558
 10
122.6413817742408
 20
102.8971630325476
 10
123.1676201018409
 20
102.8918877301637
 10
123.8221990002946
 20
102.8880981251859
 10
124.5783759162926
 20
102.8856327287657
 10
125.4093329350629
 20
102.8842977542849
 10
126.2883059714497
 20
102.883931712895
 10
127.1884663447579
 20
102.8843623498243
 10
128.083060735755
 20
102.8853851125314
 10
128.9452927615154
 20
102.8868600440142
 10
129.748376805037
 20
102.8885933576546
 10
130.465505717471
 20
102.8904020327577
 10
131.0699046477384
 20
102.8921138145516
 10
131.5347879788371
 20
102.893567214188
 10
131.8333700937648
 20
102.8945576791254
 10
131.9388438436727
 20
102.8949344864385
 10
132.1297021307368
 20
102.592605830226
 10
132.341360181486
 20
102.8949344864385
 10
135.6430104547083
 20
102.8949344864385
 10
135.7069385068624
 20
102.8912740725395
 10
135.8877306557042
 20
102.8809280203131
 10
136.1689150386883
 20
102.8647468376948
 10
136.534019793269
 20
102.8436671600058
 10
136.9665515250543
 20
102.8185825588743
 10
137.450059903345
 20
102.7903758400054
 10
137.9680730655956
 20
102.7599405750273
 10
138.5040760855675
 20
102.7282026333382
 10
139.0416401644082
 20
102.696044820643
 10
139.5642719077255
 20
102.6643822404165
 10
140.0554886870507
 20
102.6340761665172
 10
140.4988294057613
 20
102.6060632342665
 10
140.8778006694653
 20
102.5812154834461
 10
141.1759521474636
 20
102.560458783454
 10
141.3767904453642
 20
102.5446651740721
 10
141.4638437006215
 20
102.534749758775
 10
141.4638437006215
 20
102.534749758775
 10
141.4921042491066
 20
102.5263738705002
 10
141.5268351174543
 20
102.5148543326415
 10
141.5670027770345
 20
102.5003741658939
 10
141.6115414014469
 20
102.4831163909524
 10
141.6594066961382
 20
102.4632747944351
 10
141.709565132478
 20
102.4410108651904
 10
141.7609508840663
 20
102.4165183898367
 10
141.8125088904263
 20
102.3899803890688
 10
141.8632271547742
 20
102.3615798835817
 10
141.9120183188635
 20
102.3314998940704
 10
141.9578488540639
 20
102.2999126753065
 10
141.9996744658218
 20
102.2670120139082
 10
142.0364400936604
 20
102.2329701646474
 10
142.0671014430263
 20
102.197980914142
 10
142.0906034534427
 20
102.1622272830872
 10
142.1059018303559
 20
102.1258815262546
 10
142.1059018303559
 20
102.1258815262546
 10
142.1160110322712
 20
102.0898372152725
 10
142.1243976864692
 20
102.0547618373813
 10
142.1307280493299
 20
102.0206876903507
 10
142.1346145476168
 20
101.9876686037969
 10
142.1357126717865
 20
101.9557584073361
 10
142.1336563804491
 20
101.9249571009681
 10
142.1280796322147
 20
101.895350812079
 10
142.1186486834631
 20
101.8669395406687
 10
142.1049759609579
 20
101.8397986481998
 10
142.0867169551558
 20
101.8139496665188
 10
142.0635271565132
 20
101.7894356593186
 10
142.0350082258705
 20
101.7663104562154
 10
142.0008371855309
 20
101.7446063549788
 10
141.9606264622578
 20
101.7243664193019
 10
141.9140423124311
 20
101.7056337128775
 10
141.860718694661
 20
101.6884405334753
 10
141.860718694661
 20
101.6884405334753
 10
141.5724288023436
 20
101.6739065371116
 10
140.8617056142328
 20
101.6631190820327
 10
139.7894842558243
 20
101.6556905950023
 10
138.4165491296881
 20
101.6512335027841
 10
136.803759999857
 20
101.6493602321417
 10
135.0119766303639
 20
101.6496832098387
 10
133.1020480193183
 20
101.6518148626387
 10
131.1348231648299
 20
101.6553676173054
 10
129.1711402990849
 20
101.6599539006024
 10
127.2718699520394
 20
101.6651861392933
 10
125.4978395899565
 20
101.6706767601419
 10
123.9099089768691
 20
101.6760381899116
 10
122.5689378768099
 20
101.6808828553662
 10
121.535753756042
 20
101.6848231832692
 10
120.8712271445216
 20
101.6874716003844
 10
120.6361962744349
 20
101.6884405334753
 10
99.44800884511804
 20
101.6884405334753
 10
99.44420847421699
 20
101.6890218933299
 10
99.43342101913812
 20
101.6910135891279
 10
99.41669077443495
 20
101.6948031941057
 10
99.39497590727518
 20
101.7007675155764
 10
99.36929918036589
 20
101.70927259493
 10
99.34062952679798
 20
101.7207167713261
 10
99.30997894335532
 20
101.7354768520777
 10
99.27832712905203
 20
101.7539188785749
 10
99.24667531474876
 20
101.7764519559003
 10
99.21601396538284
 20
101.8034205935975
 10
99.18734431181494
 20
101.835223130826
 10
99.16166758490564
 20
101.8722471408223
 10
99.13995271774587
 20
101.9148478990529
 10
99.12322247304272
 20
101.9634237446775
 10
99.11244578388707
 20
102.0183622509325
 10
99.1086346470628
 20
102.0800186932845
 10
99.1086346470628
 20
102.0800186932845
 10
99.11486811661436
 20
102.1422349636446
 10
99.1326534217943
 20
102.1988529539239
 10
99.16069865181473
 20
102.2501202803566
 10
99.19761500257866
 20
102.2962630273307
 10
99.24208903145174
 20
102.3375395770038
 10
99.29277499802993
 20
102.3741652478404
 10
99.34833792783239
 20
102.4063768901518
 10
99.4074320804551
 20
102.4344328860955
 10
99.46874401326366
 20
102.458548554136
 10
99.53090645400758
 20
102.4789715105079
 10
99.59258442820607
 20
102.4959386055222
 10
99.65245372730149
 20
102.50968668949
 10
99.70916861088982
 20
102.5204526127224
 10
99.76139410449024
 20
102.5284732255305
 10
99.8077844676987
 20
102.5339853782255
 10
99.84700472603436
 20
102.5372259211185
 10
99.84700472603436
 20
102.5372259211185
 10
99.94342433450382
 20
102.5432117744357
 10
100.1513466098913
 20
102.5560339890055
 10
100.4545257740392
 20
102.5746913339673
 10
100.8367160487897
 20
102.5981718125371
 10
101.2816716559852
 20
102.6255064916243
 10
101.7731683493144
 20
102.6556833744447
 10
102.2949495846963
 20
102.6877012301379
 10
102.8307588180501
 20
102.7205803596896
 10
103.3643610371413
 20
102.7533087663162
 10
103.8795212297353
 20
102.7849175169265
 10
104.3599936176745
 20
102.8143838488136
 10
104.7895324228011
 20
102.8407280629633
 10
105.1518918669576
 20
102.862948928515
 10
105.4308369379093
 20
102.8800559805313
 10
105.6101110915754
 20
102.8910479881516
 10
105.6734793157213
 20
102.8949344864385
 10
108.9532532329354
 20
102.8949344864385
 10
109.1426904181329
 20
102.6532825735639
 10
109.3328381542637
 20
102.8949344864385
 10
109.4378920331656
 20
102.8938686600385
 10
109.7351714713821
 20
102.8909941585355
 10
110.1977724267555
 20
102.8867846825516
 10
110.7988339208209
 20
102.8817139327091
 10
111.511473443267
 20
102.8762663755535
 10
112.3088300156289
 20
102.870915711707
 10
113.1639995957489
 20
102.866146407715
 10
114.0501427370085
 20
102.8624429301231
 10
114.9403553972499
 20
102.8602574477069
 10
115.8077765980084
 20
102.8600959588584
 10
116.6255238289725
 20
102.8624213982766
 10
117.3667361116774
 20
102.8677074665838
 10
118.0045094039653
 20
102.8764493962485
 10
118.5120042592179
 20
102.8890993560465
 10
118.8623166352772
 20
102.9061633443699
 10
119.0285855536786
 20
102.9281042959176
 10
119.0285855536786
 20
102.9281042959176
 10
119.0937947506973
 20
102.9566339924834
 10
119.1585194811705
 20
102.9923876235383
 10
119.2222537467064
 20
103.0346761699952
 10
119.28444848522
 20
103.0827675490743
 10
119.3446407620124
 20
103.1359404439192
 10
119.4022707490755
 20
103.1935058354429
 10
119.456864745787
 20
103.2547424067889
 10
119.5078736900622
 20
103.3189288411005
 10
119.5548131153555
 20
103.3853761192909
 10
119.5971662573518
 20
103.4533413926571
 10
119.6344055858127
 20
103.5221356421122
 10
119.6660251023463
 20
103.5910267848764
 10
119.6915080426374
 20
103.6593258018628
 10
119.7103484082941
 20
103.7262898443684
 10
119.7220294350013
 20
103.7912406592295
 10
119.7260343584437
 20
103.8534353977432
 10
119.7260343584437
 20
103.8534353977432
 10
119.7261204858296
 20
103.9188276154568
 10
119.7263681020639
 20
103.9927572102937
 10
119.7267233775306
 20
104.0736308256156
 10
119.7271755463064
 20
104.1598443388608
 10
119.7276707787751
 20
104.2498259252372
 10
119.7281660112437
 20
104.3419714621834
 10
119.7286504777892
 20
104.4346983589842
 10
119.7290703487953
 20
104.5264024930778
 10
119.7293933264922
 20
104.6155120396725
 10
119.7295978790337
 20
104.70040134436
 10
119.7296301768034
 20
104.7795093482718
 10
119.7294471561084
 20
104.8512319288461
 10
119.7290488169488
 20
104.9139757294445
 10
119.7283597978619
 20
104.9661473934288
 10
119.7273693329246
 20
105.0061643300837
 10
119.7260343584437
 20
105.0324224168475
 10
119.7260343584437
 20
105.0324224168475
 10
119.7234290050215
 20
105.0600693077083
 10
119.7180891070982
 20
105.1036928286461
 10
119.7089919019668
 20
105.1608383491637
 10
119.6951253928435
 20
105.2290727706107
 10
119.6754452851746
 20
105.3059522284133
 10
119.6489288162532
 20
105.3890113261514
 10
119.6145747552186
 20
105.4758384970207
 10
119.571328041594
 20
105.5639683446013
 10
119.5181982104421
 20
105.6509677702424
 10
119.4541086694395
 20
105.7343929093703
 10
119.3780797195723
 20
105.8117998974113
 10
119.2890670662867
 20
105.8807448697917
 10
119.1860479468758
 20
105.9387731960144
 10
119.0679995986324
 20
105.9834625433521
 10
118.9338884929263
 20
106.0123582813079
 10
118.7827026329736
 20
106.023016545308
 10
118.7827026329736
 20
106.023016545308
 10
118.623603819445
 20
106.023759394011
 10
118.4671641889549
 20
106.0244161153282
 10
118.3144280360567
 20
106.0249867092595
 10
118.1664504212272
 20
106.0254604098817
 10
118.0242648730968
 20
106.0258695149645
 10
117.8889372180654
 20
106.026214024508
 10
117.7615117506866
 20
106.026493938512
 10
117.6430542973604
 20
106.0267307888231
 10
117.5345876207939
 20
106.0268922776716
 10
117.4371883133103
 20
106.0270214687504
 10
117.3518899035399
 20
106.0271183620595
 10
117.2797366860363
 20
106.0271829575989
 10
117.2217944871995
 20
106.0272152553686
 10
117.179107601583
 20
106.0272367872151
 10
117.1527310896636
 20
106.0272475531383
 10
117.1436984800716
 20
106.0272475531383
 10
117.1436984800716
 20
106.7465619479885
 10
117.1443874991585
 20
106.7520310369906
 10
117.1468528955787
 20
106.7674909027523
 10
117.1517190928797
 20
106.791520443407
 10
117.1595674509162
 20
106.8226770252416
 10
117.1710331591587
 20
106.8595610782359
 10
117.1866868115386
 20
106.9007192027534
 10
117.2071743634499
 20
106.9447195310042
 10
117.2330771747471
 20
106.9901624929682
 10
117.2650196689776
 20
107.035594689009
 10
117.3035939719193
 20
107.0796057831831
 10
117.3494245071197
 20
107.1207531417773
 10
117.4031034003565
 20
107.1576264288483
 10
117.4652443092539
 20
107.1887937766062
 10
117.5364501255131
 20
107.2128233172609
 10
117.617323740835
 20
107.2282831830226
 10
117.708489578767
 20
107.2337522720247
 10
120.6361962744349
 20
107.2337522720247
  0
LWPOLYLINE
  5
AB
330
1F
100
AcDbEntity
  8
ISS138金台
  6
Continuous
 62
   250
420
  2300438
370
    25
100
AcDbPolyline
 90
      346
 70
     0
 43
0.0
 10
120.6361962744349
 20
107.2337522720247
 10
123.773806175365
 20
107.2249349808974
 10
123.7793936895226
 20
107.2239768137297
 10
123.7951657670581
 20
107.2208331641458
 10
123.819669008335
 20
107.2150733952165
 10
123.8513854181777
 20
107.2062991677821
 10
123.888872362873
 20
107.1941229086062
 10
123.9306333790915
 20
107.1780709170667
 10
123.9752043012737
 20
107.1577771517736
 10
124.0211101979367
 20
107.1328217417209
 10
124.0668546057511
 20
107.1027740499792
 10
124.1109733591576
 20
107.067235737389
 10
124.151991526673
 20
107.0257869329443
 10
124.1884341768148
 20
106.9780292974853
 10
124.2188263780998
 20
106.9235321940828
 10
124.2416824331223
 20
106.8618972835773
 10
124.2555166444759
 20
106.7926939290394
 10
124.2588756125244
 20
106.7155237913095
 10
124.2588756125244
 20
106.7155237913095
 10
124.2562702591022
 20
106.6227968945087
 10
124.2541170744557
 20
106.5367664019585
 10
124.252372994892
 20
106.4573354203498
 10
124.2509949567183
 20
106.3843962904502
 10
124.2499398962415
 20
106.3178736507972
 10
124.2491970475385
 20
106.2576490762351
 10
124.2487018150698
 20
106.2036149075316
 10
124.2484219010657
 20
106.1557065491474
 10
124.2483250077566
 20
106.1137948100036
 10
124.2483573055263
 20
106.0777935627145
 10
124.2484972625284
 20
106.0476059139708
 10
124.2487018150698
 20
106.0231242045403
 10
124.2489278994577
 20
106.0042515411139
 10
124.2491324519991
 20
105.9908910303824
 10
124.2492831749243
 20
105.9829565449602
 10
124.2493477704637
 20
105.9803296596914
 10
124.2493477704637
 20
105.9803296596914
 10
124.2283865179302
 20
105.980168170843
 10
124.1689155579944
 20
105.9796837042975
 10
124.0761563634239
 20
105.9789516215177
 10
123.9552335136775
 20
105.9780149861965
 10
123.8113577155996
 20
105.9769491597965
 10
123.649707378265
 20
105.9757541423177
 10
123.4754286129788
 20
105.9745160611459
 10
123.2937213606622
 20
105.9732779799742
 10
123.1097424985435
 20
105.9720829624954
 10
122.9286812016208
 20
105.970995604249
 10
122.755715878969
 20
105.9700482030045
 10
122.5960141737394
 20
105.9693161202247
 10
122.454754495007
 20
105.9688316536792
 10
122.3371044859232
 20
105.9686486329843
 10
122.2482425555629
 20
105.968820887756
 10
122.1933578789241
 20
105.9693914816873
 10
122.1933578789241
 20
105.9693914816873
 10
122.10418373679
 20
105.9666677031095
 10
122.0224273157631
 20
105.9546959964751
 10
121.9478625314554
 20
105.9339285305598
 10
121.880209469863
 20
105.904849771909
 10
121.8192097488281
 20
105.8679118892986
 10
121.7645726884237
 20
105.8235885833508
 10
121.7160506724152
 20
105.7723427887645
 10
121.6733637867987
 20
105.7146482061621
 10
121.6362536494166
 20
105.6509570043191
 10
121.6044403462648
 20
105.581742883858
 10
121.577676261109
 20
105.5074687794776
 10
121.5556814799452
 20
105.4286083918002
 10
121.5381760887693
 20
105.3456138896015
 10
121.5249232372702
 20
105.2589589735039
 10
121.5156214795974
 20
105.1691065782062
 10
121.5100231995166
 20
105.0765196384075
 10
121.5100231995166
 20
105.0765196384075
 10
121.5067718907004
 20
104.9833513387542
 10
121.5047371312095
 20
104.8915503113515
 10
121.5038004958882
 20
104.8012134495083
 10
121.503789729965
 20
104.7124807102268
 10
121.5045864082842
 20
104.6254812845857
 10
121.5060398079206
 20
104.5403443636638
 10
121.5080099718721
 20
104.4571776066934
 10
121.5103784749833
 20
104.3761209706766
 10
121.5129945943287
 20
104.2973144126154
 10
121.5157183729065
 20
104.2208548258188
 10
121.5184098537146
 20
104.1468929332122
 10
121.5209398456742
 20
104.075547159951
 10
121.5231576258601
 20
104.0069466971141
 10
121.5249340031935
 20
103.941209969857
 10
121.5261290206723
 20
103.8784769351817
 10
121.5266027212945
 20
103.8188660182439
 10
121.5266027212945
 20
103.8188660182439
 10
121.5281637801632
 20
103.7611929674879
 10
121.5329007863854
 20
103.6982230825015
 10
121.5410613561956
 20
103.6311406148404
 10
121.552936169521
 20
103.5610759864438
 10
121.5687728425958
 20
103.4892242147907
 10
121.588840523501
 20
103.4167264877437
 10
121.6134191262406
 20
103.344756290935
 10
121.642756267049
 20
103.2744871099971
 10
121.6771426258533
 20
103.2070708987158
 10
121.7168150529647
 20
103.1436703768001
 10
121.7620642283105
 20
103.0854590298825
 10
121.8131485340483
 20
103.0335995776719
 10
121.8703371182589
 20
102.9892547398777
 10
121.933899129023
 20
102.9535764702854
 10
122.0040821825751
 20
102.9277597863741
 10
122.0811769588424
 20
102.9129351100831
 10
122.0811769588424
 20
102.9129351100831
 10
122.2703126981893
 20
102.9041178189558
 10
122.6413817742408
 20
102.8971630325476
 10
123.1676201018409
 20
102.8918877301637
 10
123.8221990002946
 20
102.8880981251859
 10
124.5783759162926
 20
102.8856327287657
 10
125.4093329350629
 20
102.8842977542849
 10
126.2883059714497
 20
102.883931712895
 10
127.1884663447579
 20
102.8843623498243
 10
128.083060735755
 20
102.8853851125314
 10
128.9452927615154
 20
102.8868600440142
 10
129.748376805037
 20
102.8885933576546
 10
130.465505717471
 20
102.8904020327577
 10
131.0699046477384
 20
102.8921138145516
 10
131.5347879788371
 20
102.893567214188
 10
131.8333700937648
 20
102.8945576791254
 10
131.9388438436727
 20
102.8949344864385
 10
132.1297021307368
 20
102.592605830226
 10
132.341360181486
 20
102.8949344864385
 10
135.6430104547083
 20
102.8949344864385
 10
135.7069385068624
 20
102.8912740725395
 10
135.8877306557042
 20
102.8809280203131
 10
136.1689150386883
 20
102.8647468376948
 10
136.534019793269
 20
102.8436671600058
 10
136.9665515250543
 20
102.8185825588743
 10
137.450059903345
 20
102.7903758400054
 10
137.9680730655956
 20
102.7599405750273
 10
138.5040760855675
 20
102.7282026333382
 10
139.0416401644082
 20
102.696044820643
 10
139.5642719077255
 20
102.6643822404165
 10
140.0554886870507
 20
102.6340761665172
 10
140.4988294057613
 20
102.6060632342665
 10
140.8778006694653
 20
102.5812154834461
 10
141.1759521474636
 20
102.560458783454
 10
141.3767904453642
 20
102.5446651740721
 10
141.4638437006215
 20
102.534749758775
 10
141.4638437006215
 20
102.534749758775
 10
141.4921042491066
 20
102.5263738705002
 10
141.5268351174543
 20
102.5148543326415
 10
141.5670027770345
 20
102.5003741658939
 10
141.6115414014469
 20
102.4831163909524
 10
141.6594066961382
 20
102.4632747944351
 10
141.709565132478
 20
102.4410108651904
 10
141.7609508840663
 20
102.4165183898367
 10
141.8125088904263
 20
102.3899803890688
 10
141.8632271547742
 20
102.3615798835817
 10
141.9120183188635
 20
102.3314998940704
 10
141.9578488540639
 20
102.2999126753065
 10
141.9996744658218
 20
102.2670120139082
 10
142.0364400936604
 20
102.2329701646474
 10
142.0671014430263
 20
102.197980914142
 10
142.0906034534427
 20
102.1622272830872
 10
142.1059018303559
 20
102.1258815262546
 10
142.1059018303559
 20
102.1258815262546
 10
142.1160110322712
 20
102.0898372152725
 10
142.1243976864692
 20
102.0547618373813
 10
142.1307280493299
 20
102.0206876903507
 10
142.1346145476168
 20
101.9876686037969
 10
142.1357126717865
 20
101.9557584073361
 10
142.1336563804491
 20
101.9249571009681
 10
142.1280796322147
 20
101.895350812079
 10
142.1186486834631
 20
101.8669395406687
 10
142.1049759609579
 20
101.8397986481998
 10
142.0867169551558
 20
101.8139496665188
 10
142.0635271565132
 20
101.7894356593186
 10
142.0350082258705
 20
101.7663104562154
 10
142.0008371855309
 20
101.7446063549788
 10
141.9606264622578
 20
101.7243664193019
 10
141.9140423124311
 20
101.7056337128775
 10
141.860718694661
 20
101.6884405334753
 10
141.860718694661
 20
101.6884405334753
 10
141.5724288023436
 20
101.6739065371116
 10
140.8617056142328
 20
101.6631190820327
 10
139.7894842558243
 20
101.6556905950023
 10
138.4165491296881
 20
101.6512335027841
 10
136.803759999857
 20
101.6493602321417
 10
135.0119766303639
 20
101.6496832098387
 10
133.1020480193183
 20
101.6518148626387
 10
131.1348231648299
 20
101.6553676173054
 10
129.1711402990849
 20
101.6599539006024
 10
127.2718699520394
 20
101.6651861392933
 10
125.4978395899565
 20
101.6706767601419
 10
123.9099089768691
 20
101.6760381899116
 10
122.5689378768099
 20
101.6808828553662
 10
121.535753756042
 20
101.6848231832692
 10
120.8712271445216
 20
101.6874716003844
 10
120.6361962744349
 20
101.6884405334753
 10
99.44800884511804
 20
101.6884405334753
 10
99.44420847421699
 20
101.6890218933299
 10
99.43342101913812
 20
101.6910135891279
 10
99.41669077443495
 20
101.6948031941057
 10
99.39497590727518
 20
101.7007675155764
 10
99.36929918036589
 20
101.70927259493
 10
99.34062952679798
 20
101.7207167713261
 10
99.30997894335532
 20
101.7354768520777
 10
99.27832712905203
 20
101.7539188785749
 10
99.24667531474876
 20
101.7764519559003
 10
99.21601396538284
 20
101.8034205935975
 10
99.18734431181494
 20
101.835223130826
 10
99.16166758490564
 20
101.8722471408223
 10
99.13995271774587
 20
101.9148478990529
 10
99.12322247304272
 20
101.9634237446775
 10
99.11244578388707
 20
102.0183622509325
 10
99.1086346470628
 20
102.0800186932845
 10
99.1086346470628
 20
102.0800186932845
 10
99.11486811661436
 20
102.1422349636446
 10
99.1326534217943
 20
102.1988529539239
 10
99.16069865181473
 20
102.2501202803566
 10
99.19761500257866
 20
102.2962630273307
 10
99.24208903145174
 20
102.3375395770038
 10
99.29277499802993
 20
102.3741652478404
 10
99.34833792783239
 20
102.4063768901518
 10
99.4074320804551
 20
102.4344328860955
 10
99.46874401326366
 20
102.458548554136
 10
99.53090645400758
 20
102.4789715105079
 10
99.59258442820607
 20
102.4959386055222
 10
99.65245372730149
 20
102.50968668949
 10
99.70916861088982
 20
102.5204526127224
 10
99.76139410449024
 20
102.5284732255305
 10
99.8077844676987
 20
102.5339853782255
 10
99.84700472603436
 20
102.5372259211185
 10
99.84700472603436
 20
102.5372259211185
 10
99.94342433450382
 20
102.5432117744357
 10
100.1513466098913
 20
102.5560339890055
 10
100.4545257740392
 20
102.5746913339673
 10
100.8367160487897
 20
102.5981718125371
 10
101.2816716559852
 20
102.6255064916243
 10
101.7731683493144
 20
102.6556833744447
 10
102.2949495846963
 20
102.6877012301379
 10
102.8307588180501
 20
102.7205803596896
 10
103.3643610371413
 20
102.7533087663162
 10
103.8795212297353
 20
102.7849175169265
 10
104.3599936176745
 20
102.8143838488136
 10
104.7895324228011
 20
102.8407280629633
 10
105.1518918669576
 20
102.862948928515
 10
105.4308369379093
 20
102.8800559805313
 10
105.6101110915754
 20
102.8910479881516
 10
105.6734793157213
 20
102.8949344864385
 10
108.9532532329354
 20
102.8949344864385
 10
109.1426904181329
 20
102.6532825735639
 10
109.3328381542637
 20
102.8949344864385
 10
109.4378920331656
 20
102.8938686600385
 10
109.7351714713821
 20
102.8909941585355
 10
110.1977724267555
 20
102.8867846825516
 10
110.7988339208209
 20
102.8817139327091
 10
111.511473443267
 20
102.8762663755535
 10
112.3088300156289
 20
102.870915711707
 10
113.1639995957489
 20
102.866146407715
 10
114.0501427370085
 20
102.8624429301231
 10
114.9403553972499
 20
102.8602574477069
 10
115.8077765980084
 20
102.8600959588584
 10
116.6255238289725
 20
102.8624213982766
 10
117.3667361116774
 20
102.8677074665838
 10
118.0045094039653
 20
102.8764493962485
 10
118.5120042592179
 20
102.8890993560465
 10
118.8623166352772
 20
102.9061633443699
 10
119.0285855536786
 20
102.9281042959176
 10
119.0285855536786
 20
102.9281042959176
 10
119.0937947506973
 20
102.9566339924834
 10
119.1585194811705
 20
102.9923876235383
 10
119.2222537467064
 20
103.0346761699952
 10
119.28444848522
 20
103.0827675490743
 10
119.3446407620124
 20
103.1359404439192
 10
119.4022707490755
 20
103.1935058354429
 10
119.456864745787
 20
103.2547424067889
 10
119.5078736900622
 20
103.3189288411005
 10
119.5548131153555
 20
103.3853761192909
 10
119.5971662573518
 20
103.4533413926571
 10
119.6344055858127
 20
103.5221356421122
 10
119.6660251023463
 20
103.5910267848764
 10
119.6915080426374
 20
103.6593258018628
 10
119.7103484082941
 20
103.7262898443684
 10
119.7220294350013
 20
103.7912406592295
 10
119.7260343584437
 20
103.8534353977432
 10
119.7260343584437
 20
103.8534353977432
 10
119.7261204858296
 20
103.9188276154568
 10
119.7263681020639
 20
103.9927572102937
 10
119.7267233775306
 20
104.0736308256156
 10
119.7271755463064
 20
104.1598443388608
 10
119.7276707787751
 20
104.2498259252372
 10
119.7281660112437
 20
104.3419714621834
 10
119.7286504777892
 20
104.4346983589842
 10
119.7290703487953
 20
104.5264024930778
 10
119.7293933264922
 20
104.6155120396725
 10
119.7295978790337
 20
104.70040134436
 10
119.7296301768034
 20
104.7795093482718
 10
119.7294471561084
 20
104.8512319288461
 10
119.7290488169488
 20
104.9139757294445
 10
119.7283597978619
 20
104.9661473934288
 10
119.7273693329246
 20
105.0061643300837
 10
119.7260343584437
 20
105.0324224168475
 10
119.7260343584437
 20
105.0324224168475
 10
119.7234290050215
 20
105.0600693077083
 10
119.7180891070982
 20
105.1036928286461
 10
119.7089919019668
 20
105.1608383491637
 10
119.6951253928435
 20
105.2290727706107
 10
119.6754452851746
 20
105.3059522284133
 10
119.6489288162532
 20
105.3890113261514
 10
119.6145747552186
 20
105.4758384970207
 10
119.571328041594
 20
105.5639683446013
 10
119.5181982104421
 20
105.6509677702424
 10
119.4541086694395
 20
105.7343929093703
 10
119.3780797195723
 20
105.8117998974113
 10
119.2890670662867
 20
105.8807448697917
 10
119.1860479468758
 20
105.9387731960144
 10
119.0679995986324
 20
105.9834625433521
 10
118.9338884929263
 20
106.0123582813079
 10
118.7827026329736
 20
106.023016545308
 10
118.7827026329736
 20
106.023016545308
 10
118.623603819445
 20
106.023759394011
 10
118.4671641889549
 20
106.0244161153282
 10
118.3144280360567
 20
106.0249867092595
 10
118.1664504212272
 20
106.0254604098817
 10
118.0242648730968
 20
106.0258695149645
 10
117.8889372180654
 20
106.026214024508
 10
117.7615117506866
 20
106.026493938512
 10
117.6430542973604
 20
106.0267307888231
 10
117.5345876207939
 20
106.0268922776716
 10
117.4371883133103
 20
106.0270214687504
 10
117.3518899035399
 20
106.0271183620595
 10
117.2797366860363
 20
106.0271829575989
 10
117.2217944871995
 20
106.0272152553686
 10
117.179107601583
 20
106.0272367872151
 10
117.1527310896636
 20
106.0272475531383
 10
117.1436984800716
 20
106.0272475531383
 10
117.1436984800716
 20
106.7465619479885
 10
117.1443874991585
 20
106.7520310369906
 10
117.1468528955787
 20
106.7674909027523
 10
117.1517190928797
 20
106.791520443407
 10
117.1595674509162
 20
106.8226770252416
 10
117.1710331591587
 20
106.8595610782359
 10
117.1866868115386
 20
106.9007192027534
 10
117.2071743634499
 20
106.9447195310042
 10
117.2330771747471
 20
106.9901624929682
 10
117.2650196689776
 20
107.035594689009
 10
117.3035939719193
 20
107.0796057831831
 10
117.3494245071197
 20
107.1207531417773
 10
117.4031034003565
 20
107.1576264288483
 10
117.4652443092539
 20
107.1887937766062
 10
117.5364501255131
 20
107.2128233172609
 10
117.617323740835
 20
107.2282831830226
 10
117.708489578767
 20
107.2337522720247
 10
120.6361962744349
 20
107.2337522720247
  0
ENDSEC
  0
SECTION
  2
OBJECTS
  0
DICTIONARY
  5
C
330
0
100
AcDbDictionary
281
     1
  3
ACAD_DETAILVIEWSTYLE
350
B3
  3
ACAD_GROUP
350
D
  3
ACAD_LAYOUT
350
1A
  3
ACAD_MATERIAL
350
43
  3
ACAD_MLEADERSTYLE
350
5B
  3
ACAD_MLINESTYLE
350
17
  3
ACAD_PLOTSETTINGS
350
19
  3
ACAD_PLOTSTYLENAME
350
E
  3
ACAD_SCALELIST
350
47
  3
ACAD_SECTIONVIEWSTYLE
350
B4
  3
ACAD_TABLESTYLE
350
59
  3
ACAD_VISUALSTYLE
350
2A
  3
ACDB_RECOMPOSE_DATA
350
B0
  3
AcDbVariableDictionary
350
AC
  0
SUN
  5
5D
330
29
100
AcDbSun
 90
        1
290
     0
 63
     7
421
 16777215
 40
1.0
291
     1
 91
  2455826
 92
 54000000
292
     0
 70
     2
 71
   256
280
     1
  0
DICTIONARY
  5
B3
102
{ACAD_REACTORS
330
C
102
}
330
C
100
AcDbDictionary
281
     1
  0
DICTIONARY
  5
D
102
{ACAD_REACTORS
330
C
102
}
330
C
100
AcDbDictionary
281
     1
  0
DICTIONARY
  5
1A
102
{ACAD_REACTORS
330
C
102
}
330
C
100
AcDbDictionary
281
     1
  3
Layout1
350
1E
  3
Layout2
350
26
  3
Model
350
22
  0
DICTIONARY
  5
43
102
{ACAD_REACTORS
330
C
102
}
330
C
100
AcDbDictionary
281
     1
  3
ByBlock
350
45
  3
ByLayer
350
44
  3
Global
350
46
  0
DICTIONARY
  5
5B
102
{ACAD_REACTORS
330
C
102
}
330
C
100
AcDbDictionary
281
     1
  3
Standard
350
5C
  0
DICTIONARY
  5
17
102
{ACAD_REACTORS
330
C
102
}
330
C
100
AcDbDictionary
281
     1
  3
Standard
350
18
  0
DICTIONARY
  5
19
102
{ACAD_REACTORS
330
C
102
}
330
C
100
AcDbDictionary
281
     1
  0
ACDBDICTIONARYWDFLT
  5
E
102
{ACAD_REACTORS
330
C
102
}
330
C
100
AcDbDictionary
281
     1
  3
Normal
350
F
100
AcDbDictionaryWithDefault
340
F
  0
DICTIONARY
  5
47
102
{ACAD_REACTORS
330
C
102
}
330
C
100
AcDbDictionary
281
     1
  3
A0
350
48
  3
A1
350
49
  3
A2
350
4A
  3
A3
350
4B
  3
A4
350
4C
  3
A5
350
4D
  3
A6
350
4E
  3
A7
350
4F
  3
A8
350
50
  3
A9
350
51
  3
B0
350
52
  3
B1
350
53
  3
B2
350
54
  3
B3
350
55
  3
B4
350
56
  3
B5
350
57
  3
B6
350
58
  0
DICTIONARY
  5
B4
102
{ACAD_REACTORS
330
C
102
}
330
C
100
AcDbDictionary
281
     1
  0
DICTIONARY
  5
59
102
{ACAD_REACTORS
330
C
102
}
330
C
100
AcDbDictionary
281
     1
  3
Standard
350
5A
  0
DICTIONARY
  5
2A
102
{ACAD_REACTORS
330
C
102
}
330
C
100
AcDbDictionary
281
     1
  3
2dWireframe
350
2F
  3
Basic
350
32
  3
Brighten
350
36
  3
ColorChange
350
3A
  3
Conceptual
350
34
  3
Dim
350
35
  3
EdgeColorOff
350
3D
  3
Facepattern
350
39
  3
Flat
350
2B
  3
FlatWithEdges
350
2C
  3
Gouraud
350
2D
  3
GouraudWithEdges
350
2E
  3
Hidden
350
31
  3
JitterOff
350
3B
  3
Linepattern
350
38
  3
OverhangOff
350
3C
  3
Realistic
350
33
  3
Shaded
350
42
  3
Shaded with edges
350
41
  3
Shades of Gray
350
3E
  3
Sketchy
350
3F
  3
Thicken
350
37
  3
Wireframe
350
30
  3
X-Ray
350
40
  0
XRECORD
  5
B0
102
{ACAD_REACTORS
330
C
102
}
330
C
100
AcDbXrecord
280
     1
 90
        1
330
5A
  0
DICTIONARY
  5
AC
102
{ACAD_REACTORS
330
C
102
}
330
C
100
AcDbDictionary
281
     1
  3
CANNOSCALE
350
AD
  3
CENTEREXE
350
B5
  3
CENTERLTYPEFILE
350
B6
  3
CMLEADERSTYLE
350
B2
  3
CTABLESTYLE
350
B1
  0
LAYOUT
  5
1E
102
{ACAD_REACTORS
330
1A
102
}
330
1A
100
AcDbPlotSettings
  1

  2
none_device
  4

  6

 40
0.0
 41
0.0
 42
0.0
 43
0.0
 44
0.0
 45
0.0
 46
0.0
 47
0.0
 48
0.0
 49
0.0
140
0.0
141
0.0
142
1.0
143
1.0
 70
   688
 72
     1
 73
     0
 74
     5
  7

 75
    16
 76
     0
 77
     5
 78
   300
147
1.0
148
0.0
149
0.0
100
AcDbLayout
  1
Layout1
 70
     1
 71
     1
 10
0.0
 20
0.0
 11
420.0
 21
297.0
 12
0.0
 22
0.0
 32
0.0
 14
1.000000000000000E+20
 24
1.000000000000000E+20
 34
1.000000000000000E+20
 15
-1.000000000000000E+20
 25
-1.000000000000000E+20
 35
-1.000000000000000E+20
146
0.0
 13
0.0
 23
0.0
 33
0.0
 16
1.0
 26
0.0
 36
0.0
 17
0.0
 27
1.0
 37
0.0
 76
     0
330
1B
  0
LAYOUT
  5
26
102
{ACAD_REACTORS
330
1A
102
}
330
1A
100
AcDbPlotSettings
  1

  2
none_device
  4

  6

 40
0.0
 41
0.0
 42
0.0
 43
0.0
 44
0.0
 45
0.0
 46
0.0
 47
0.0
 48
0.0
 49
0.0
140
0.0
141
0.0
142
1.0
143
1.0
 70
   688
 72
     1
 73
     0
 74
     5
  7

 75
    16
 76
     0
 77
     5
 78
   300
147
1.0
148
0.0
149
0.0
100
AcDbLayout
  1
Layout2
 70
     1
 71
     2
 10
0.0
 20
0.0
 11
0.0
 21
0.0
 12
0.0
 22
0.0
 32
0.0
 14
0.0
 24
0.0
 34
0.0
 15
0.0
 25
0.0
 35
0.0
146
0.0
 13
0.0
 23
0.0
 33
0.0
 16
1.0
 26
0.0
 36
0.0
 17
0.0
 27
1.0
 37
0.0
 76
     0
330
23
  0
LAYOUT
  5
22
102
{ACAD_REACTORS
330
1A
102
}
330
1A
100
AcDbPlotSettings
  1

  2
none_device
  4
Letter_(8.50_x_11.00_Inches)
  6

 40
6.35
 41
6.35
 42
6.35000508
 43
6.35000508
 44
215.9
 45
279.4
 46
0.0
 47
0.0
 48
0.0
 49
0.0
140
0.0
141
0.0
142
1.0
143
1.0
 70
  1712
 72
     1
 73
     0
 74
     0
  7

 75
     0
 76
     0
 77
     5
 78
   300
147
1.0
148
0.0
149
0.0
100
AcDbLayout
  1
Model
 70
     1
 71
     0
 10
0.0
 20
0.0
 11
302.9997823349792
 21
216.0016055409748
 12
0.0
 22
0.0
 32
0.0
 14
0.0
 24
0.0
 34
0.0
 15
302.9997823349792
 25
216.0016055409748
 35
0.0
146
0.0
 13
0.0
 23
0.0
 33
0.0
 16
1.0
 26
0.0
 36
0.0
 17
0.0
 27
1.0
 37
0.0
 76
     0
330
1F
331
29
  0
MATERIAL
  5
45
102
{ACAD_REACTORS
330
43
102
}
330
43
100
AcDbMaterial
  1
ByBlock
 72
     1
 94
      127
  0
MATERIAL
  5
44
102
{ACAD_REACTORS
330
43
102
}
330
43
100
AcDbMaterial
  1
ByLayer
 72
     1
 94
      127
  0
MATERIAL
  5
46
102
{ACAD_REACTORS
330
43
102
}
330
43
100
AcDbMaterial
  1
Global
 72
     1
 94
      127
  0
MLEADERSTYLE
  5
5C
102
{ACAD_REACTORS
330
5B
102
}
330
5B
100
AcDbMLeaderStyle
179
     2
170
     2
171
     1
172
     0
 90
        2
 40
0.0
 41
0.0
173
     1
 91
-1056964608
340
14
 92
       -2
290
     1
 42
2.0
291
     1
 43
8.0
  3
Standard
341
0
 44
4.0
300

342
11
174
     1
178
     6
175
     1
176
     0
 93
-1056964608
 45
4.0
292
     0
297
     0
 46
4.0
343
0
 94
-1056964608
 47
1.0
 49
1.0
140
1.0
293
     1
141
0.0
294
     1
177
     0
142
1.0
295
     0
296
     0
143
3.75
271
     0
272
     9
273
     9
298
     0
  0
MLINESTYLE
  5
18
102
{ACAD_REACTORS
330
17
102
}
330
17
100
AcDbMlineStyle
  2
Standard
 70
     0
  3

 62
   256
 51
90.0
 52
90.0
 71
     2
 49
0.5
 62
   256
  6
BYLAYER
 49
-0.5
 62
   256
  6
BYLAYER
  0
ACDBPLACEHOLDER
  5
F
102
{ACAD_REACTORS
330
E
102
}
330
E
  0
SCALE
  5
48
102
{ACAD_REACTORS
330
47
102
}
330
47
100
AcDbScale
 70
     0
300
1:1
140
1.0
141
1.0
290
     1
  0
SCALE
  5
49
102
{ACAD_REACTORS
330
47
102
}
330
47
100
AcDbScale
 70
     0
300
1:2
140
1.0
141
2.0
290
     0
  0
SCALE
  5
4A
102
{ACAD_REACTORS
330
47
102
}
330
47
100
AcDbScale
 70
     0
300
1:4
140
1.0
141
4.0
290
     0
  0
SCALE
  5
4B
102
{ACAD_REACTORS
330
47
102
}
330
47
100
AcDbScale
 70
     0
300
1:5
140
1.0
141
5.0
290
     0
  0
SCALE
  5
4C
102
{ACAD_REACTORS
330
47
102
}
330
47
100
AcDbScale
 70
     0
300
1:8
140
1.0
141
8.0
290
     0
  0
SCALE
  5
4D
102
{ACAD_REACTORS
330
47
102
}
330
47
100
AcDbScale
 70
     0
300
1:10
140
1.0
141
10.0
290
     0
  0
SCALE
  5
4E
102
{ACAD_REACTORS
330
47
102
}
330
47
100
AcDbScale
 70
     0
300
1:16
140
1.0
141
16.0
290
     0
  0
SCALE
  5
4F
102
{ACAD_REACTORS
330
47
102
}
330
47
100
AcDbScale
 70
     0
300
1:20
140
1.0
141
20.0
290
     0
  0
SCALE
  5
50
102
{ACAD_REACTORS
330
47
102
}
330
47
100
AcDbScale
 70
     0
300
1:30
140
1.0
141
30.0
290
     0
  0
SCALE
  5
51
102
{ACAD_REACTORS
330
47
102
}
330
47
100
AcDbScale
 70
     0
300
1:40
140
1.0
141
40.0
290
     0
  0
SCALE
  5
52
102
{ACAD_REACTORS
330
47
102
}
330
47
100
AcDbScale
 70
     0
300
1:50
140
1.0
141
50.0
290
     0
  0
SCALE
  5
53
102
{ACAD_REACTORS
330
47
102
}
330
47
100
AcDbScale
 70
     0
300
1:100
140
1.0
141
100.0
290
     0
  0
SCALE
  5
54
102
{ACAD_REACTORS
330
47
102
}
330
47
100
AcDbScale
 70
     0
300
2:1
140
2.0
141
1.0
290
     0
  0
SCALE
  5
55
102
{ACAD_REACTORS
330
47
102
}
330
47
100
AcDbScale
 70
     0
300
4:1
140
4.0
141
1.0
290
     0
  0
SCALE
  5
56
102
{ACAD_REACTORS
330
47
102
}
330
47
100
AcDbScale
 70
     0
300
8:1
140
8.0
141
1.0
290
     0
  0
SCALE
  5
57
102
{ACAD_REACTORS
330
47
102
}
330
47
100
AcDbScale
 70
     0
300
10:1
140
10.0
141
1.0
290
     0
  0
SCALE
  5
58
102
{ACAD_REACTORS
330
47
102
}
330
47
100
AcDbScale
 70
     0
300
100:1
140
100.0
141
1.0
290
     0
  0
TABLESTYLE
  5
5A
102
{ACAD_REACTORS
330
59
102
}
102
{ACAD_XDICTIONARY
360
AE
102
}
330
59
100
AcDbTableStyle
  3
Standard
 70
     0
 71
     0
 40
0.06
 41
0.06
280
     0
281
     0
  7
Standard
140
4.5
170
     2
 62
     0
 63
   257
283
     0
 90
        4
 91
        0
  1

274
    -2
284
     1
 64
     0
275
    -2
285
     1
 65
     0
276
    -2
286
     1
 66
     0
277
    -2
287
     1
 67
     0
278
    -2
288
     1
 68
     0
279
    -2
289
     1
 69
     0
  7
Standard
140
6.0
170
     5
 62
     0
 63
   257
283
     0
 90
        4
 91
        0
  1

274
    -2
284
     1
 64
     0
275
    -2
285
     1
 65
     0
276
    -2
286
     1
 66
     0
277
    -2
287
     1
 67
     0
278
    -2
288
     1
 68
     0
279
    -2
289
     1
 69
     0
  7
Standard
140
4.5
170
     5
 62
     0
 63
   257
283
     0
 90
        4
 91
        0
  1

274
    -2
284
     1
 64
     0
275
    -2
285
     1
 65
     0
276
    -2
286
     1
 66
     0
277
    -2
287
     1
 67
     0
278
    -2
288
     1
 68
     0
279
    -2
289
     1
 69
     0
  0
VISUALSTYLE
  5
2F
102
{ACAD_REACTORS
330
2A
102
}
330
2A
100
AcDbVisualStyle
  2
2dWireframe
 70
     4
177
     3
291
     0
 70
    58
 90
        0
176
     1
 90
        2
176
     1
 90
        0
176
     1
 90
        0
176
     1
 40
0.6
176
     1
 40
30.0
176
     1
 62
     7
420
 16777215
176
     1
 90
        1
176
     1
 90
        4
176
     1
 62
     7
176
     1
 62
   257
176
     1
 90
        1
176
     1
 90
        1
176
     1
 40
1.0
176
     1
 90
        0
176
     1
 62
   257
176
     1
 40
1.0
176
     1
 90
        1
176
     1
 90
        6
176
     1
 90
        2
176
     1
 62
     7
176
     1
 90
        5
176
     1
 90
        0
176
     1
 90
        0
176
     1
290
     0
176
     1
 90
        1
176
     1
 40
0.0
176
     1
 90
        0
176
     1
290
     1
176
     1
290
     1
176
     1
290
     0
176
     1
290
     0
176
     1
290
     0
176
     1
290
     0
176
     1
290
     0
176
     1
290
     0
176
     1
290
     0
176
     1
 90
       50
176
     1
 40
0.0
176
     1
 40
1.0
176
     1
 90
        0
176
     1
 62
    18
420
        0
176
     1
 90
       50
176
     1
 90
        3
176
     1
 62
     5
420
      255
176
     1
290
     0
176
     1
 90
       50
176
     1
 90
       50
176
     1
 90
       50
176
     1
290
     0
176
     1
 90
       50
176
     1
 62
   256
176
     0
 40
1.0
176
     0
 90
        2
176
     1
  1
strokes_ogs.tif
176
     1
290
     0
176
     1
 40
1.0
176
     1
 40
1.0
176
     1
  0
VISUALSTYLE
  5
32
102
{ACAD_REACTORS
330
2A
102
}
330
2A
100
AcDbVisualStyle
  2
Basic
 70
     7
177
     3
291
     1
 70
    58
 90
        1
176
     1
 90
        0
176
     1
 90
        1
176
     1
 90
        0
176
     1
 40
0.6
176
     1
 40
30.0
176
     1
 62
     7
420
 16777215
176
     1
 90
        0
176
     1
 90
        4
176
     1
 62
     7
176
     1
 62
   257
176
     1
 90
        1
176
     1
 90
        1
176
     1
 40
1.0
176
     1
 90
        8
176
     1
 62
     7
176
     1
 40
1.0
176
     1
 90
        1
176
     1
 90
        6
176
     1
 90
        2
176
     1
 62
     7
176
     1
 90
        5
176
     1
 90
        0
176
     1
 90
        0
176
     1
290
     0
176
     1
 90
        1
176
     1
 40
0.0
176
     1
 90
        0
176
     1
290
     0
176
     1
290
     1
176
     1
290
     1
176
     1
290
     0
176
     1
290
     0
176
     1
290
     0
176
     1
290
     0
176
     1
290
     0
176
     1
290
     0
176
     1
 90
       50
176
     1
 40
0.0
176
     1
 40
1.0
176
     1
 90
        0
176
     1
 62
    18
420
        0
176
     1
 90
       50
176
     1
 90
        3
176
     1
 62
     5
420
      255
176
     1
290
     0
176
     1
 90
       50
176
     1
 90
       50
176
     1
 90
       50
176
     1
290
     0
176
     1
 90
       50
176
     1
 62
   256
176
     0
 40
1.0
176
     0
 90
        2
176
     1
  1
strokes_ogs.tif
176
     1
290
     0
176
     1
 40
1.0
176
     1
 40
1.0
176
     1
  0
VISUALSTYLE
  5
36
102
{ACAD_REACTORS
330
2A
102
}
330
2A
100
AcDbVisualStyle
  2
Brighten
 70
    12
177
     3
291
     1
 70
    58
 90
        2
176
     1
 90
        2
176
     1
 90
        0
176
     1
 90
        0
176
     1
 40
0.6
176
     1
 40
30.0
176
     1
 62
     7
420
 16777215
176
     1
 90
        1
176
     1
 90
        4
176
     1
 62
     7
176
     1
 62
   257
176
     1
 90
        1
176
     1
 90
        1
176
     1
 40
1.0
176
     1
 90
        8
176
     1
 62
     7
176
     1
 40
1.0
176
     1
 90
        1
176
     1
 90
        6
176
     1
 90
        2
176
     1
 62
     7
176
     1
 90
        5
176
     1
 90
        0
176
     1
 90
        0
176
     1
290
     0
176
     1
 90
        1
176
     1
 40
50.0
176
     1
 90
        0
176
     1
290
     0
176
     1
290
     1
176
     1
290
     1
176
     1
290
     0
176
     1
290
     0
176
     1
290
     0
176
     1
290
     0
176
     1
290
     0
176
     1
290
     0
176
     1
 90
       50
176
     1
 40
0.0
176
     1
 40
1.0
176
     1
 90
        0
176
     1
 62
    18
420
        0
176
     1
 90
       50
176
     1
 90
        3
176
     1
 62
     5
420
      255
176
     1
290
     0
176
     1
 90
       50
176
     1
 90
       50
176
     1
 90
       50
176
     1
290
     0
176
     1
 90
       50
176
     1
 62
   256
176
     0
 40
1.0
176
     0
 90
        2
176
     1
  1
strokes_ogs.tif
176
     1
290
     0
176
     1
 40
1.0
176
     1
 40
1.0
176
     1
  0
VISUALSTYLE
  5
3A
102
{ACAD_REACTORS
330
2A
102
}
330
2A
100
AcDbVisualStyle
  2
ColorChange
 70
    16
177
     3
291
     1
 70
    58
 90
        2
176
     1
 90
        2
176
     1
 90
        3
176
     1
 90
        0
176
     1
 40
0.6
176
     1
 40
30.0
176
     1
 62
     8
420
  8421504
176
     1
 90
        1
176
     1
 90
        4
176
     1
 62
     7
176
     1
 62
   257
176
     1
 90
        1
176
     1
 90
        1
176
     1
 40
1.0
176
     1
 90
        8
176
     1
 62
     8
420
  8421504
176
     1
 40
1.0
176
     1
 90
        1
176
     1
 90
        6
176
     1
 90
        2
176
     1
 62
     7
176
     1
 90
        5
176
     1
 90
        0
176
     1
 90
        0
176
     1
290
     0
176
     1
 90
        1
176
     1
 40
0.0
176
     1
 90
        0
176
     1
290
     0
176
     1
290
     1
176
     1
290
     1
176
     1
290
     0
176
     1
290
     0
176
     1
290
     0
176
     1
290
     0
176
     1
290
     0
176
     1
290
     0
176
     1
 90
       50
176
     1
 40
0.0
176
     1
 40
1.0
176
     1
 90
        0
176
     1
 62
    18
420
        0
176
     1
 90
       50
176
     1
 90
        3
176
     1
 62
     5
420
      255
176
     1
290
     0
176
     1
 90
       50
176
     1
 90
       50
176
     1
 90
       50
176
     1
290
     0
176
     1
 90
       50
176
     1
 62
   256
176
     0
 40
1.0
176
     0
 90
        2
176
     1
  1
strokes_ogs.tif
176
     1
290
     0
176
     1
 40
1.0
176
     1
 40
1.0
176
     1
  0
VISUALSTYLE
  5
34
102
{ACAD_REACTORS
330
2A
102
}
330
2A
100
AcDbVisualStyle
  2
Conceptual
 70
     9
177
     3
291
     0
 70
    58
 90
        3
176
     1
 90
        2
176
     1
 90
        0
176
     1
 90
        0
176
     1
 40
0.6
176
     1
 40
30.0
176
     1
 62
     7
420
 16777215
176
     1
 90
        2
176
     1
 90
        2
176
     1
 62
     7
176
     1
 62
   257
176
     1
 90
        1
176
     1
 90
        1
176
     1
 40
179.0
176
     1
 90
        8
176
     1
 62
     7
176
     1
 40
1.0
176
     1
 90
        1
176
     1
 90
        6
176
     1
 90
        2
176
     1
 62
     7
176
     1
 90
        3
176
     1
 90
        0
176
     1
 90
        0
176
     1
290
     0
176
     1
 90
        1
176
     1
 40
0.0
176
     1
 90
        0
176
     1
290
     0
176
     1
290
     1
176
     1
290
     1
176
     1
290
     0
176
     1
290
     0
176
     1
290
     0
176
     1
290
     0
176
     1
290
     0
176
     1
290
     0
176
     1
 90
       50
176
     1
 40
0.0
176
     1
 40
1.0
176
     1
 90
        0
176
     1
 62
    18
420
        0
176
     1
 90
       50
176
     1
 90
        3
176
     1
 62
     5
420
      255
176
     1
290
     0
176
     1
 90
       50
176
     1
 90
       50
176
     1
 90
       50
176
     1
290
     0
176
     1
 90
       50
176
     1
 62
   256
176
     0
 40
1.0
176
     0
 90
        2
176
     1
  1
strokes_ogs.tif
176
     1
290
     0
176
     1
 40
1.0
176
     1
 40
1.0
176
     1
  0
VISUALSTYLE
  5
35
102
{ACAD_REACTORS
330
2A
102
}
330
2A
100
AcDbVisualStyle
  2
Dim
 70
    11
177
     3
291
     1
 70
    58
 90
        2
176
     1
 90
        2
176
     1
 90
        0
176
     1
 90
        0
176
     1
 40
0.6
176
     1
 40
30.0
176
     1
 62
     7
420
 16777215
176
     1
 90
        1
176
     1
 90
        4
176
     1
 62
     7
176
     1
 62
   257
176
     1
 90
        1
176
     1
 90
        1
176
     1
 40
1.0
176
     1
 90
        8
176
     1
 62
     7
176
     1
 40
1.0
176
     1
 90
        1
176
     1
 90
        6
176
     1
 90
        2
176
     1
 62
     7
176
     1
 90
        5
176
     1
 90
        0
176
     1
 90
        0
176
     1
290
     0
176
     1
 90
        1
176
     1
 40
-50.0
176
     1
 90
        0
176
     1
290
     0
176
     1
290
     1
176
     1
290
     1
176
     1
290
     0
176
     1
290
     0
176
     1
290
     0
176
     1
290
     0
176
     1
290
     0
176
     1
290
     0
176
     1
 90
       50
176
     1
 40
0.0
176
     1
 40
1.0
176
     1
 90
        0
176
     1
 62
    18
420
        0
176
     1
 90
       50
176
     1
 90
        3
176
     1
 62
     5
420
      255
176
     1
290
     0
176
     1
 90
       50
176
     1
 90
       50
176
     1
 90
       50
176
     1
290
     0
176
     1
 90
       50
176
     1
 62
   256
176
     0
 40
1.0
176
     0
 90
        2
176
     1
  1
strokes_ogs.tif
176
     1
290
     0
176
     1
 40
1.0
176
     1
 40
1.0
176
     1
  0
VISUALSTYLE
  5
3D
102
{ACAD_REACTORS
330
2A
102
}
330
2A
100
AcDbVisualStyle
  2
EdgeColorOff
 70
    22
177
     3
291
     1
 70
    58
 90
        2
176
     0
 90
        2
176
     0
 90
        0
176
     0
 90
        0
176
     0
 40
0.6
176
     0
 40
30.0
176
     0
 62
     7
420
 16777215
176
     0
 90
        1
176
     0
 90
        4
176
     0
 62
     7
176
     0
 62
   257
176
     0
 90
        1
176
     0
 90
        1
176
     0
 40
1.0
176
     0
 90
        8
176
     2
 62
     7
176
     0
 40
1.0
176
     0
 90
        1
176
     0
 90
        6
176
     0
 90
        2
176
     0
 62
     7
176
     0
 90
        5
176
     0
 90
        0
176
     0
 90
        0
176
     0
290
     0
176
     0
 90
        1
176
     0
 40
0.0
176
     0
 90
        0
176
     0
290
     0
176
     0
290
     1
176
     0
290
     1
176
     0
290
     0
176
     0
290
     0
176
     0
290
     0
176
     0
290
     0
176
     0
290
     0
176
     0
290
     0
176
     0
 90
       50
176
     0
 40
0.0
176
     0
 40
1.0
176
     0
 90
        0
176
     0
 62
    18
420
        0
176
     0
 90
       50
176
     0
 90
        3
176
     0
 62
     5
420
      255
176
     0
290
     0
176
     0
 90
       50
176
     0
 90
       50
176
     0
 90
       50
176
     0
290
     0
176
     0
 90
       50
176
     0
 62
   256
176
     0
 40
1.0
176
     0
 90
        2
176
     0
  1
strokes_ogs.tif
176
     0
290
     0
176
     0
 40
1.0
176
     0
 40
1.0
176
     0
  0
VISUALSTYLE
  5
39
102
{ACAD_REACTORS
330
2A
102
}
330
2A
100
AcDbVisualStyle
  2
Facepattern
 70
    15
177
     3
291
     1
 70
    58
 90
        2
176
     1
 90
        2
176
     1
 90
        0
176
     1
 90
        0
176
     1
 40
0.6
176
     1
 40
30.0
176
     1
 62
     7
420
 16777215
176
     1
 90
        1
176
     1
 90
        4
176
     1
 62
     7
176
     1
 62
   257
176
     1
 90
        1
176
     1
 90
        1
176
     1
 40
1.0
176
     1
 90
        8
176
     1
 62
     7
176
     1
 40
1.0
176
     1
 90
        1
176
     1
 90
        6
176
     1
 90
        2
176
     1
 62
     7
176
     1
 90
        5
176
     1
 90
        0
176
     1
 90
        0
176
     1
290
     0
176
     1
 90
        1
176
     1
 40
0.0
176
     1
 90
        0
176
     1
290
     0
176
     1
290
     1
176
     1
290
     1
176
     1
290
     0
176
     1
290
     0
176
     1
290
     0
176
     1
290
     0
176
     1
290
     0
176
     1
290
     0
176
     1
 90
       50
176
     1
 40
0.0
176
     1
 40
1.0
176
     1
 90
        0
176
     1
 62
    18
420
        0
176
     1
 90
       50
176
     1
 90
        3
176
     1
 62
     5
420
      255
176
     1
290
     0
176
     1
 90
       50
176
     1
 90
       50
176
     1
 90
       50
176
     1
290
     0
176
     1
 90
       50
176
     1
 62
   256
176
     0
 40
1.0
176
     0
 90
        2
176
     1
  1
strokes_ogs.tif
176
     1
290
     0
176
     1
 40
1.0
176
     1
 40
1.0
176
     1
  0
VISUALSTYLE
  5
2B
102
{ACAD_REACTORS
330
2A
102
}
330
2A
100
AcDbVisualStyle
  2
Flat
 70
     0
177
     3
291
     1
 70
    58
 90
        2
176
     1
 90
        1
176
     1
 90
        1
176
     1
 90
        2
176
     1
 40
0.6
176
     1
 40
30.0
176
     1
 62
     7
420
 16777215
176
     1
 90
        0
176
     1
 90
        0
176
     1
 62
     7
176
     1
 62
   257
176
     1
 90
        1
176
     1
 90
        1
176
     1
 40
1.0
176
     1
 90
        8
176
     1
 62
     7
176
     1
 40
1.0
176
     1
 90
        1
176
     1
 90
        6
176
     1
 90
        2
176
     1
 62
     7
176
     1
 90
        5
176
     1
 90
        0
176
     1
 90
        0
176
     1
290
     0
176
     1
 90
       13
176
     1
 40
0.0
176
     1
 90
        0
176
     1
290
     0
176
     1
290
     1
176
     1
290
     1
176
     1
290
     0
176
     1
290
     0
176
     1
290
     0
176
     1
290
     0
176
     1
290
     0
176
     1
290
     0
176
     1
 90
       50
176
     1
 40
0.0
176
     1
 40
1.0
176
     1
 90
        0
176
     1
 62
    18
420
        0
176
     1
 90
       50
176
     1
 90
        3
176
     1
 62
     5
420
      255
176
     1
290
     0
176
     1
 90
       50
176
     1
 90
       50
176
     1
 90
       50
176
     1
290
     0
176
     1
 90
       50
176
     1
 62
   256
176
     0
 40
1.0
176
     0
 90
        2
176
     1
  1
strokes_ogs.tif
176
     1
290
     0
176
     1
 40
1.0
176
     1
 40
1.0
176
     1
  0
VISUALSTYLE
  5
2C
102
{ACAD_REACTORS
330
2A
102
}
330
2A
100
AcDbVisualStyle
  2
FlatWithEdges
 70
     1
177
     3
291
     1
 70
    58
 90
        2
176
     1
 90
        1
176
     1
 90
        1
176
     1
 90
        2
176
     1
 40
0.6
176
     1
 40
30.0
176
     1
 62
     7
420
 16777215
176
     1
 90
        1
176
     1
 90
        0
176
     1
 62
     7
176
     1
 62
   257
176
     1
 90
        1
176
     1
 90
        1
176
     1
 40
1.0
176
     1
 90
        0
176
     1
 62
   257
176
     1
 40
1.0
176
     1
 90
        1
176
     1
 90
        6
176
     1
 90
        2
176
     1
 62
     7
176
     1
 90
        5
176
     1
 90
        0
176
     1
 90
        0
176
     1
290
     0
176
     1
 90
       13
176
     1
 40
0.0
176
     1
 90
        0
176
     1
290
     0
176
     1
290
     1
176
     1
290
     1
176
     1
290
     0
176
     1
290
     0
176
     1
290
     0
176
     1
290
     0
176
     1
290
     0
176
     1
290
     0
176
     1
 90
       50
176
     1
 40
0.0
176
     1
 40
1.0
176
     1
 90
        0
176
     1
 62
    18
420
        0
176
     1
 90
       50
176
     1
 90
        3
176
     1
 62
     5
420
      255
176
     1
290
     0
176
     1
 90
       50
176
     1
 90
       50
176
     1
 90
       50
176
     1
290
     0
176
     1
 90
       50
176
     1
 62
   256
176
     0
 40
1.0
176
     0
 90
        2
176
     1
  1
strokes_ogs.tif
176
     1
290
     0
176
     1
 40
1.0
176
     1
 40
1.0
176
     1
  0
VISUALSTYLE
  5
2D
102
{ACAD_REACTORS
330
2A
102
}
330
2A
100
AcDbVisualStyle
  2
Gouraud
 70
     2
177
     3
291
     1
 70
    58
 90
        2
176
     1
 90
        2
176
     1
 90
        1
176
     1
 90
        2
176
     1
 40
0.6
176
     1
 40
30.0
176
     1
 62
     7
420
 16777215
176
     1
 90
        0
176
     1
 90
        0
176
     1
 62
     7
176
     1
 62
   257
176
     1
 90
        1
176
     1
 90
        1
176
     1
 40
1.0
176
     1
 90
        0
176
     1
 62
     7
176
     1
 40
1.0
176
     1
 90
        1
176
     1
 90
        6
176
     1
 90
        2
176
     1
 62
     7
176
     1
 90
        5
176
     1
 90
        0
176
     1
 90
        0
176
     1
290
     0
176
     1
 90
       13
176
     1
 40
0.0
176
     1
 90
        0
176
     1
290
     0
176
     1
290
     1
176
     1
290
     1
176
     1
290
     0
176
     1
290
     0
176
     1
290
     0
176
     1
290
     0
176
     1
290
     0
176
     1
290
     0
176
     1
 90
       50
176
     1
 40
0.0
176
     1
 40
1.0
176
     1
 90
        0
176
     1
 62
    18
420
        0
176
     1
 90
       50
176
     1
 90
        3
176
     1
 62
     5
420
      255
176
     1
290
     0
176
     1
 90
       50
176
     1
 90
       50
176
     1
 90
       50
176
     1
290
     0
176
     1
 90
       50
176
     1
 62
   256
176
     0
 40
1.0
176
     0
 90
        2
176
     1
  1
strokes_ogs.tif
176
     1
290
     0
176
     1
 40
1.0
176
     1
 40
1.0
176
     1
  0
VISUALSTYLE
  5
2E
102
{ACAD_REACTORS
330
2A
102
}
330
2A
100
AcDbVisualStyle
  2
GouraudWithEdges
 70
     3
177
     3
291
     1
 70
    58
 90
        2
176
     1
 90
        2
176
     1
 90
        1
176
     1
 90
        2
176
     1
 40
0.6
176
     1
 40
30.0
176
     1
 62
     7
420
 16777215
176
     1
 90
        1
176
     1
 90
        0
176
     1
 62
     7
176
     1
 62
   257
176
     1
 90
        1
176
     1
 90
        1
176
     1
 40
1.0
176
     1
 90
        0
176
     1
 62
   257
176
     1
 40
1.0
176
     1
 90
        1
176
     1
 90
        6
176
     1
 90
        2
176
     1
 62
     7
176
     1
 90
        5
176
     1
 90
        0
176
     1
 90
        0
176
     1
290
     0
176
     1
 90
       13
176
     1
 40
0.0
176
     1
 90
        0
176
     1
290
     0
176
     1
290
     1
176
     1
290
     1
176
     1
290
     0
176
     1
290
     0
176
     1
290
     0
176
     1
290
     0
176
     1
290
     0
176
     1
290
     0
176
     1
 90
       50
176
     1
 40
0.0
176
     1
 40
1.0
176
     1
 90
        0
176
     1
 62
    18
420
        0
176
     1
 90
       50
176
     1
 90
        3
176
     1
 62
     5
420
      255
176
     1
290
     0
176
     1
 90
       50
176
     1
 90
       50
176
     1
 90
       50
176
     1
290
     0
176
     1
 90
       50
176
     1
 62
   256
176
     0
 40
1.0
176
     0
 90
        2
176
     1
  1
strokes_ogs.tif
176
     1
290
     0
176
     1
 40
1.0
176
     1
 40
1.0
176
     1
  0
VISUALSTYLE
  5
31
102
{ACAD_REACTORS
330
2A
102
}
330
2A
100
AcDbVisualStyle
  2
Hidden
 70
     6
177
     3
291
     0
 70
    58
 90
        1
176
     1
 90
        2
176
     1
 90
        2
176
     1
 90
        0
176
     1
 40
0.6
176
     1
 40
30.0
176
     1
 62
     7
420
 16777215
176
     1
 90
        2
176
     1
 90
        2
176
     1
 62
     7
176
     1
 62
   257
176
     1
 90
        2
176
     1
 90
        1
176
     1
 40
40.0
176
     1
 90
        0
176
     1
 62
   257
176
     1
 40
1.0
176
     1
 90
        1
176
     1
 90
        6
176
     1
 90
        2
176
     1
 62
     7
176
     1
 90
        3
176
     1
 90
        0
176
     1
 90
        0
176
     1
290
     0
176
     1
 90
        1
176
     1
 40
0.0
176
     1
 90
        0
176
     1
290
     0
176
     1
290
     1
176
     1
290
     1
176
     1
290
     0
176
     1
290
     0
176
     1
290
     0
176
     1
290
     0
176
     1
290
     0
176
     1
290
     0
176
     1
 90
       50
176
     1
 40
0.0
176
     1
 40
1.0
176
     1
 90
        0
176
     1
 62
    18
420
        0
176
     1
 90
       50
176
     1
 90
        3
176
     1
 62
     5
420
      255
176
     1
290
     0
176
     1
 90
       50
176
     1
 90
       50
176
     1
 90
       50
176
     1
290
     0
176
     1
 90
       50
176
     1
 62
   256
176
     0
 40
1.0
176
     0
 90
        2
176
     1
  1
strokes_ogs.tif
176
     1
290
     0
176
     1
 40
1.0
176
     1
 40
1.0
176
     1
  0
VISUALSTYLE
  5
3B
102
{ACAD_REACTORS
330
2A
102
}
330
2A
100
AcDbVisualStyle
  2
JitterOff
 70
    20
177
     3
291
     1
 70
    58
 90
        2
176
     0
 90
        2
176
     0
 90
        0
176
     0
 90
        0
176
     0
 40
0.6
176
     0
 40
30.0
176
     0
 62
     7
420
 16777215
176
     0
 90
        1
176
     0
 90
        4
176
     0
 62
     7
176
     0
 62
   257
176
     0
 90
        1
176
     0
 90
        1
176
     0
 40
1.0
176
     0
 90
       10
176
     2
 62
     7
176
     0
 40
1.0
176
     0
 90
        1
176
     0
 90
        6
176
     0
 90
        2
176
     0
 62
     7
176
     0
 90
        5
176
     0
 90
        0
176
     0
 90
        0
176
     0
290
     0
176
     0
 90
        1
176
     0
 40
0.0
176
     0
 90
        0
176
     0
290
     0
176
     0
290
     1
176
     0
290
     1
176
     0
290
     0
176
     0
290
     0
176
     0
290
     0
176
     0
290
     0
176
     0
290
     0
176
     0
290
     0
176
     0
 90
       50
176
     0
 40
0.0
176
     0
 40
1.0
176
     0
 90
        0
176
     0
 62
    18
420
        0
176
     0
 90
       50
176
     0
 90
        3
176
     0
 62
     5
420
      255
176
     0
290
     0
176
     0
 90
       50
176
     0
 90
       50
176
     0
 90
       50
176
     0
290
     0
176
     0
 90
       50
176
     0
 62
   256
176
     0
 40
1.0
176
     0
 90
        2
176
     0
  1
strokes_ogs.tif
176
     0
290
     0
176
     0
 40
1.0
176
     0
 40
1.0
176
     0
  0
VISUALSTYLE
  5
38
102
{ACAD_REACTORS
330
2A
102
}
330
2A
100
AcDbVisualStyle
  2
Linepattern
 70
    14
177
     3
291
     1
 70
    58
 90
        2
176
     1
 90
        2
176
     1
 90
        0
176
     1
 90
        0
176
     1
 40
0.6
176
     1
 40
30.0
176
     1
 62
     7
420
 16777215
176
     1
 90
        1
176
     1
 90
        4
176
     1
 62
     7
176
     1
 62
   257
176
     1
 90
        7
176
     1
 90
        7
176
     1
 40
1.0
176
     1
 90
        8
176
     1
 62
     7
176
     1
 40
1.0
176
     1
 90
        1
176
     1
 90
        6
176
     1
 90
        2
176
     1
 62
     7
176
     1
 90
        5
176
     1
 90
        0
176
     1
 90
        0
176
     1
290
     0
176
     1
 90
        1
176
     1
 40
0.0
176
     1
 90
        0
176
     1
290
     0
176
     1
290
     1
176
     1
290
     1
176
     1
290
     0
176
     1
290
     0
176
     1
290
     0
176
     1
290
     0
176
     1
290
     0
176
     1
290
     0
176
     1
 90
       50
176
     1
 40
0.0
176
     1
 40
1.0
176
     1
 90
        0
176
     1
 62
    18
420
        0
176
     1
 90
       50
176
     1
 90
        3
176
     1
 62
     5
420
      255
176
     1
290
     0
176
     1
 90
       50
176
     1
 90
       50
176
     1
 90
       50
176
     1
290
     0
176
     1
 90
       50
176
     1
 62
   256
176
     0
 40
1.0
176
     0
 90
        2
176
     1
  1
strokes_ogs.tif
176
     1
290
     0
176
     1
 40
1.0
176
     1
 40
1.0
176
     1
  0
VISUALSTYLE
  5
3C
102
{ACAD_REACTORS
330
2A
102
}
330
2A
100
AcDbVisualStyle
  2
OverhangOff
 70
    21
177
     3
291
     1
 70
    58
 90
        2
176
     0
 90
        2
176
     0
 90
        0
176
     0
 90
        0
176
     0
 40
0.6
176
     0
 40
30.0
176
     0
 62
     7
420
 16777215
176
     0
 90
        1
176
     0
 90
        4
176
     0
 62
     7
176
     0
 62
   257
176
     0
 90
        1
176
     0
 90
        1
176
     0
 40
1.0
176
     0
 90
        9
176
     2
 62
     7
176
     0
 40
1.0
176
     0
 90
        1
176
     0
 90
        6
176
     0
 90
        2
176
     0
 62
     7
176
     0
 90
        5
176
     0
 90
        0
176
     0
 90
        0
176
     0
290
     0
176
     0
 90
        1
176
     0
 40
0.0
176
     0
 90
        0
176
     0
290
     0
176
     0
290
     1
176
     0
290
     1
176
     0
290
     0
176
     0
290
     0
176
     0
290
     0
176
     0
290
     0
176
     0
290
     0
176
     0
290
     0
176
     0
 90
       50
176
     0
 40
0.0
176
     0
 40
1.0
176
     0
 90
        0
176
     0
 62
    18
420
        0
176
     0
 90
       50
176
     0
 90
        3
176
     0
 62
     5
420
      255
176
     0
290
     0
176
     0
 90
       50
176
     0
 90
       50
176
     0
 90
       50
176
     0
290
     0
176
     0
 90
       50
176
     0
 62
   256
176
     0
 40
1.0
176
     0
 90
        2
176
     0
  1
strokes_ogs.tif
176
     0
290
     0
176
     0
 40
1.0
176
     0
 40
1.0
176
     0
  0
VISUALSTYLE
  5
33
102
{ACAD_REACTORS
330
2A
102
}
330
2A
100
AcDbVisualStyle
  2
Realistic
 70
     8
177
     3
291
     0
 70
    58
 90
        2
176
     1
 90
        3
176
     1
 90
        0
176
     1
 90
        2
176
     1
 40
0.6
176
     1
 40
30.0
176
     1
 62
     7
420
 16777215
176
     1
 90
        0
176
     1
 90
        0
176
     1
 62
     7
176
     1
 62
   257
176
     1
 90
        1
176
     1
 90
        1
176
     1
 40
1.0
176
     1
 90
        8
176
     1
 62
   257
176
     1
 40
1.0
176
     1
 90
        1
176
     1
 90
        6
176
     1
 90
        2
176
     1
 62
     7
176
     1
 90
        3
176
     1
 90
        0
176
     1
 90
        0
176
     1
290
     0
176
     1
 90
       13
176
     1
 40
0.0
176
     1
 90
        0
176
     1
290
     0
176
     1
290
     1
176
     1
290
     1
176
     1
290
     0
176
     1
290
     0
176
     1
290
     0
176
     1
290
     0
176
     1
290
     0
176
     1
290
     0
176
     1
 90
       50
176
     1
 40
0.0
176
     1
 40
1.0
176
     1
 90
        0
176
     1
 62
    18
420
        0
176
     1
 90
       50
176
     1
 90
        3
176
     1
 62
     5
420
      255
176
     1
290
     0
176
     1
 90
       50
176
     1
 90
       50
176
     1
 90
       50
176
     1
290
     0
176
     1
 90
       50
176
     1
 62
   256
176
     0
 40
1.0
176
     0
 90
        2
176
     1
  1
strokes_ogs.tif
176
     1
290
     0
176
     1
 40
1.0
176
     1
 40
1.0
176
     1
  0
VISUALSTYLE
  5
42
102
{ACAD_REACTORS
330
2A
102
}
330
2A
100
AcDbVisualStyle
  2
Shaded
 70
    27
177
     3
291
     0
 70
    58
 90
        2
176
     1
 90
        2
176
     1
 90
        1
176
     1
 90
        2
176
     1
 40
0.6
176
     1
 40
30.0
176
     1
 62
     7
420
 16777215
176
     1
 90
        0
176
     1
 90
        4
176
     1
 62
     7
176
     1
 62
   257
176
     1
 90
        1
176
     1
 90
        1
176
     1
 40
1.0
176
     1
 90
        8
176
     1
 62
   257
176
     1
 40
1.0
176
     1
 90
        1
176
     1
 90
        6
176
     1
 90
        2
176
     1
 62
     8
420
  7895160
176
     1
 90
        3
176
     1
 90
        0
176
     1
 90
        0
176
     1
290
     0
176
     1
 90
        5
176
     1
 40
0.0
176
     1
 90
        0
176
     1
290
     0
176
     1
290
     1
176
     1
290
     1
176
     1
290
     0
176
     1
290
     0
176
     1
290
     0
176
     1
290
     0
176
     1
290
     0
176
     1
290
     0
176
     1
 90
       50
176
     1
 40
0.0
176
     1
 40
1.0
176
     1
 90
        0
176
     1
 62
    18
420
        0
176
     1
 90
       50
176
     1
 90
        3
176
     1
 62
     5
420
      255
176
     1
290
     0
176
     1
 90
       50
176
     1
 90
       50
176
     1
 90
       50
176
     1
290
     0
176
     1
 90
       50
176
     1
 62
   256
176
     0
 40
1.0
176
     0
 90
        2
176
     1
  1
strokes_ogs.tif
176
     1
290
     0
176
     1
 40
1.0
176
     1
 40
1.0
176
     1
  0
VISUALSTYLE
  5
41
102
{ACAD_REACTORS
330
2A
102
}
330
2A
100
AcDbVisualStyle
  2
Shaded with edges
 70
    26
177
     3
291
     0
 70
    58
 90
        2
176
     1
 90
        2
176
     1
 90
        1
176
     1
 90
        2
176
     1
 40
0.6
176
     1
 40
30.0
176
     1
 62
     7
420
 16777215
176
     1
 90
        1
176
     1
 90
       10
176
     1
 62
     7
176
     1
 62
   257
176
     1
 90
        2
176
     1
 90
        1
176
     1
 40
1.0
176
     1
 90
        8
176
     1
 62
   257
176
     1
 40
1.0
176
     1
 90
        1
176
     1
 90
        6
176
     1
 90
        2
176
     1
 62
     7
176
     1
 90
        3
176
     1
 90
        0
176
     1
 90
        0
176
     1
290
     0
176
     1
 90
        5
176
     1
 40
0.0
176
     1
 90
        0
176
     1
290
     0
176
     1
290
     1
176
     1
290
     1
176
     1
290
     0
176
     1
290
     0
176
     1
290
     0
176
     1
290
     0
176
     1
290
     0
176
     1
290
     0
176
     1
 90
       50
176
     1
 40
0.0
176
     1
 40
1.0
176
     1
 90
        0
176
     1
 62
    18
420
        0
176
     1
 90
       50
176
     1
 90
        3
176
     1
 62
     5
420
      255
176
     1
290
     0
176
     1
 90
       50
176
     1
 90
       50
176
     1
 90
       50
176
     1
290
     0
176
     1
 90
       50
176
     1
 62
   256
176
     0
 40
1.0
176
     0
 90
        2
176
     1
  1
strokes_ogs.tif
176
     1
290
     0
176
     1
 40
1.0
176
     1
 40
1.0
176
     1
  0
VISUALSTYLE
  5
3E
102
{ACAD_REACTORS
330
2A
102
}
330
2A
100
AcDbVisualStyle
  2
Shades of Gray
 70
    23
177
     3
291
     0
 70
    58
 90
        2
176
     1
 90
        2
176
     1
 90
        3
176
     1
 90
        0
176
     1
 40
0.6
176
     1
 40
30.0
176
     1
 62
     7
420
 16777215
176
     1
 90
        2
176
     1
 90
        2
176
     1
 62
     7
176
     1
 62
     7
176
     1
 90
        1
176
     1
 90
        1
176
     1
 40
40.0
176
     1
 90
        8
176
     1
 62
     7
176
     1
 40
1.0
176
     1
 90
        1
176
     1
 90
        6
176
     1
 90
        2
176
     1
 62
     7
176
     1
 90
        3
176
     1
 90
        0
176
     1
 90
        0
176
     1
290
     0
176
     1
 90
        1
176
     1
 40
0.0
176
     1
 90
        0
176
     1
290
     0
176
     1
290
     1
176
     1
290
     1
176
     1
290
     0
176
     1
290
     0
176
     1
290
     0
176
     1
290
     0
176
     1
290
     0
176
     1
290
     0
176
     1
 90
       50
176
     1
 40
0.0
176
     1
 40
1.0
176
     1
 90
        0
176
     1
 62
    18
420
        0
176
     1
 90
       50
176
     1
 90
        3
176
     1
 62
     5
420
      255
176
     1
290
     0
176
     1
 90
       50
176
     1
 90
       50
176
     1
 90
       50
176
     1
290
     0
176
     1
 90
       50
176
     1
 62
   256
176
     0
 40
1.0
176
     0
 90
        2
176
     1
  1
strokes_ogs.tif
176
     1
290
     0
176
     1
 40
1.0
176
     1
 40
1.0
176
     1
  0
VISUALSTYLE
  5
3F
102
{ACAD_REACTORS
330
2A
102
}
330
2A
100
AcDbVisualStyle
  2
Sketchy
 70
    24
177
     3
291
     0
 70
    58
 90
        1
176
     1
 90
        2
176
     1
 90
        2
176
     1
 90
        0
176
     1
 40
0.6
176
     1
 40
30.0
176
     1
 62
     7
420
 16777215
176
     1
 90
        2
176
     1
 90
        2
176
     1
 62
     7
176
     1
 62
     7
176
     1
 90
        1
176
     1
 90
        1
176
     1
 40
40.0
176
     1
 90
       11
176
     1
 62
     7
176
     1
 40
1.0
176
     1
 90
        1
176
     1
 90
        6
176
     1
 90
        2
176
     1
 62
     7
176
     1
 90
        6
176
     1
 90
        0
176
     1
 90
        0
176
     1
290
     0
176
     1
 90
        1
176
     1
 40
0.0
176
     1
 90
        0
176
     1
290
     0
176
     1
290
     1
176
     1
290
     1
176
     1
290
     0
176
     1
290
     0
176
     1
290
     0
176
     1
290
     0
176
     1
290
     0
176
     1
290
     0
176
     1
 90
       50
176
     1
 40
0.0
176
     1
 40
1.0
176
     1
 90
        0
176
     1
 62
    18
420
        0
176
     1
 90
       50
176
     1
 90
        3
176
     1
 62
     5
420
      255
176
     1
290
     0
176
     1
 90
       50
176
     1
 90
       50
176
     1
 90
       50
176
     1
290
     0
176
     1
 90
       50
176
     1
 62
   256
176
     0
 40
1.0
176
     0
 90
        2
176
     1
  1
strokes_ogs.tif
176
     1
290
     0
176
     1
 40
1.0
176
     1
 40
1.0
176
     1
  0
VISUALSTYLE
  5
37
102
{ACAD_REACTORS
330
2A
102
}
330
2A
100
AcDbVisualStyle
  2
Thicken
 70
    13
177
     3
291
     1
 70
    58
 90
        2
176
     1
 90
        2
176
     1
 90
        0
176
     1
 90
        0
176
     1
 40
0.6
176
     1
 40
30.0
176
     1
 62
     7
420
 16777215
176
     1
 90
        1
176
     1
 90
        4
176
     1
 62
     7
176
     1
 62
   257
176
     1
 90
        1
176
     1
 90
        1
176
     1
 40
1.0
176
     1
 90
       12
176
     1
 62
     7
176
     1
 40
1.0
176
     1
 90
        1
176
     1
 90
        6
176
     1
 90
        2
176
     1
 62
     7
176
     1
 90
        5
176
     1
 90
        0
176
     1
 90
        0
176
     1
290
     0
176
     1
 90
        1
176
     1
 40
0.0
176
     1
 90
        0
176
     1
290
     0
176
     1
290
     1
176
     1
290
     1
176
     1
290
     0
176
     1
290
     0
176
     1
290
     0
176
     1
290
     0
176
     1
290
     0
176
     1
290
     0
176
     1
 90
       50
176
     1
 40
0.0
176
     1
 40
1.0
176
     1
 90
        0
176
     1
 62
    18
420
        0
176
     1
 90
       50
176
     1
 90
        3
176
     1
 62
     5
420
      255
176
     1
290
     0
176
     1
 90
       50
176
     1
 90
       50
176
     1
 90
       50
176
     1
290
     0
176
     1
 90
       50
176
     1
 62
   256
176
     0
 40
1.0
176
     0
 90
        2
176
     1
  1
strokes_ogs.tif
176
     1
290
     0
176
     1
 40
1.0
176
     1
 40
1.0
176
     1
  0
VISUALSTYLE
  5
30
102
{ACAD_REACTORS
330
2A
102
}
330
2A
100
AcDbVisualStyle
  2
Wireframe
 70
     5
177
     3
291
     0
 70
    58
 90
        0
176
     1
 90
        2
176
     1
 90
        0
176
     1
 90
        0
176
     1
 40
0.6
176
     1
 40
30.0
176
     1
 62
     7
420
 16777215
176
     1
 90
        1
176
     1
 90
        4
176
     1
 62
     7
176
     1
 62
   257
176
     1
 90
        1
176
     1
 90
        1
176
     1
 40
1.0
176
     1
 90
        0
176
     1
 62
   257
176
     1
 40
1.0
176
     1
 90
        1
176
     1
 90
        6
176
     1
 90
        2
176
     1
 62
     7
176
     1
 90
        3
176
     1
 90
        0
176
     1
 90
        0
176
     1
290
     0
176
     1
 90
        1
176
     1
 40
0.0
176
     1
 90
        0
176
     1
290
     0
176
     1
290
     1
176
     1
290
     1
176
     1
290
     0
176
     1
290
     0
176
     1
290
     0
176
     1
290
     0
176
     1
290
     0
176
     1
290
     0
176
     1
 90
       50
176
     1
 40
0.0
176
     1
 40
1.0
176
     1
 90
        0
176
     1
 62
    18
420
        0
176
     1
 90
       50
176
     1
 90
        3
176
     1
 62
     5
420
      255
176
     1
290
     0
176
     1
 90
       50
176
     1
 90
       50
176
     1
 90
       50
176
     1
290
     0
176
     1
 90
       50
176
     1
 62
   256
176
     0
 40
1.0
176
     0
 90
        2
176
     1
  1
strokes_ogs.tif
176
     1
290
     0
176
     1
 40
1.0
176
     1
 40
1.0
176
     1
  0
VISUALSTYLE
  5
40
102
{ACAD_REACTORS
330
2A
102
}
330
2A
100
AcDbVisualStyle
  2
X-Ray
 70
    25
177
     3
291
     0
 70
    58
 90
        2
176
     1
 90
        2
176
     1
 90
        1
176
     1
 90
        1
176
     1
 40
0.5
176
     1
 40
30.0
176
     1
 62
     7
420
 16777215
176
     1
 90
        1
176
     1
 90
        0
176
     1
 62
     7
176
     1
 62
   257
176
     1
 90
        1
176
     1
 90
        1
176
     1
 40
1.0
176
     1
 90
        8
176
     1
 62
     7
176
     1
 40
1.0
176
     1
 90
        1
176
     1
 90
        6
176
     1
 90
        2
176
     1
 62
     7
176
     1
 90
        3
176
     1
 90
        0
176
     1
 90
        0
176
     1
290
     0
176
     1
 90
       13
176
     1
 40
0.0
176
     1
 90
        0
176
     1
290
     0
176
     1
290
     1
176
     1
290
     1
176
     1
290
     0
176
     1
290
     0
176
     1
290
     0
176
     1
290
     0
176
     1
290
     0
176
     1
290
     0
176
     1
 90
       50
176
     1
 40
0.0
176
     1
 40
1.0
176
     1
 90
        0
176
     1
 62
    18
420
        0
176
     1
 90
       50
176
     1
 90
        3
176
     1
 62
     5
420
      255
176
     1
290
     0
176
     1
 90
       50
176
     1
 90
       50
176
     1
 90
       50
176
     1
290
     0
176
     1
 90
       50
176
     1
 62
   256
176
     0
 40
1.0
176
     0
 90
        2
176
     1
  1
strokes_ogs.tif
176
     1
290
     0
176
     1
 40
1.0
176
     1
 40
1.0
176
     1
  0
DICTIONARYVAR
  5
AD
102
{ACAD_REACTORS
330
AC
102
}
330
AC
100
DictionaryVariables
280
     0
  1
1:1
  0
DICTIONARYVAR
  5
B5
102
{ACAD_REACTORS
330
AC
102
}
330
AC
100
DictionaryVariables
280
     0
  1
3.500000
  0
DICTIONARYVAR
  5
B6
102
{ACAD_REACTORS
330
AC
102
}
330
AC
100
DictionaryVariables
280
     0
  1
acadiso.lin
  0
DICTIONARYVAR
  5
B2
102
{ACAD_REACTORS
330
AC
102
}
330
AC
100
DictionaryVariables
280
     0
  1
Standard
  0
DICTIONARYVAR
  5
B1
102
{ACAD_REACTORS
330
AC
102
}
330
AC
100
DictionaryVariables
280
     0
  1
Standard
  0
DICTIONARY
  5
AE
330
5A
100
AcDbDictionary
280
     1
281
     1
  3
ACAD_ROUNDTRIP_2008_TABLESTYLE_CELLSTYLEMAP
360
AF
  0
CELLSTYLEMAP
  5
AF
102
{ACAD_REACTORS
330
AE
102
}
330
AE
100
AcDbCellStyleMap
 90
        3
300
CELLSTYLE
  1
TABLEFORMAT_BEGIN
 90
        5
170
     1
 91
        0
 92
    32768
 62
   257
 93
        1
300
CONTENTFORMAT
  1
CONTENTFORMAT_BEGIN
 90
        0
 91
        0
 92
        4
 93
        0
300

 40
0.0
140
1.0
 94
        5
 62
     0
340
11
144
6.0
309
CONTENTFORMAT_END
171
     1
301
MARGIN
  1
CELLMARGIN_BEGIN
 40
1.5
 40
1.5
 40
1.5
 40
1.5
 40
1.5
 40
1.5
309
CELLMARGIN_END
 94
        6
 95
        1
302
GRIDFORMAT
  1
GRIDFORMAT_BEGIN
 90
        0
 91
        1
 62
     0
 92
       -2
340
14
 93
        0
 40
0.045
309
GRIDFORMAT_END
 95
        2
302
GRIDFORMAT
  1
GRIDFORMAT_BEGIN
 90
        0
 91
        1
 62
     0
 92
       -2
340
14
 93
        0
 40
0.045
309
GRIDFORMAT_END
 95
        4
302
GRIDFORMAT
  1
GRIDFORMAT_BEGIN
 90
        0
 91
        1
 62
     0
 92
       -2
340
14
 93
        0
 40
0.045
309
GRIDFORMAT_END
 95
        8
302
GRIDFORMAT
  1
GRIDFORMAT_BEGIN
 90
        0
 91
        1
 62
     0
 92
       -2
340
14
 93
        0
 40
0.045
309
GRIDFORMAT_END
 95
       16
302
GRIDFORMAT
  1
GRIDFORMAT_BEGIN
 90
        0
 91
        1
 62
     0
 92
       -2
340
14
 93
        0
 40
0.045
309
GRIDFORMAT_END
 95
       32
302
GRIDFORMAT
  1
GRIDFORMAT_BEGIN
 90
        0
 91
        1
 62
     0
 92
       -2
340
14
 93
        0
 40
0.045
309
GRIDFORMAT_END
309
TABLEFORMAT_END
  1
CELLSTYLE_BEGIN
 90
        1
 91
        1
300
_TITLE
309
CELLSTYLE_END
300
CELLSTYLE
  1
TABLEFORMAT_BEGIN
 90
        5
170
     1
 91
        0
 92
        0
 62
   257
 93
        1
300
CONTENTFORMAT
  1
CONTENTFORMAT_BEGIN
 90
        0
 91
        0
 92
        4
 93
        0
300

 40
0.0
140
1.0
 94
        5
 62
     0
340
11
144
4.5
309
CONTENTFORMAT_END
171
     1
301
MARGIN
  1
CELLMARGIN_BEGIN
 40
1.5
 40
1.5
 40
1.5
 40
1.5
 40
1.5
 40
1.5
309
CELLMARGIN_END
 94
        6
 95
        1
302
GRIDFORMAT
  1
GRIDFORMAT_BEGIN
 90
        0
 91
        1
 62
     0
 92
       -2
340
14
 93
        0
 40
0.045
309
GRIDFORMAT_END
 95
        2
302
GRIDFORMAT
  1
GRIDFORMAT_BEGIN
 90
        0
 91
        1
 62
     0
 92
       -2
340
14
 93
        0
 40
0.045
309
GRIDFORMAT_END
 95
        4
302
GRIDFORMAT
  1
GRIDFORMAT_BEGIN
 90
        0
 91
        1
 62
     0
 92
       -2
340
14
 93
        0
 40
0.045
309
GRIDFORMAT_END
 95
        8
302
GRIDFORMAT
  1
GRIDFORMAT_BEGIN
 90
        0
 91
        1
 62
     0
 92
       -2
340
14
 93
        0
 40
0.045
309
GRIDFORMAT_END
 95
       16
302
GRIDFORMAT
  1
GRIDFORMAT_BEGIN
 90
        0
 91
        1
 62
     0
 92
       -2
340
14
 93
        0
 40
0.045
309
GRIDFORMAT_END
 95
       32
302
GRIDFORMAT
  1
GRIDFORMAT_BEGIN
 90
        0
 91
        1
 62
     0
 92
       -2
340
14
 93
        0
 40
0.045
309
GRIDFORMAT_END
309
TABLEFORMAT_END
  1
CELLSTYLE_BEGIN
 90
        2
 91
        1
300
_HEADER
309
CELLSTYLE_END
300
CELLSTYLE
  1
TABLEFORMAT_BEGIN
 90
        5
170
     1
 91
        0
 92
        0
 62
   257
 93
        1
300
CONTENTFORMAT
  1
CONTENTFORMAT_BEGIN
 90
        0
 91
        0
 92
        4
 93
        0
300

 40
0.0
140
1.0
 94
        2
 62
     0
340
11
144
4.5
309
CONTENTFORMAT_END
171
     1
301
MARGIN
  1
CELLMARGIN_BEGIN
 40
1.5
 40
1.5
 40
1.5
 40
1.5
 40
1.5
 40
1.5
309
CELLMARGIN_END
 94
        6
 95
        1
302
GRIDFORMAT
  1
GRIDFORMAT_BEGIN
 90
        0
 91
        1
 62
     0
 92
       -2
340
14
 93
        0
 40
0.045
309
GRIDFORMAT_END
 95
        2
302
GRIDFORMAT
  1
GRIDFORMAT_BEGIN
 90
        0
 91
        1
 62
     0
 92
       -2
340
14
 93
        0
 40
0.045
309
GRIDFORMAT_END
 95
        4
302
GRIDFORMAT
  1
GRIDFORMAT_BEGIN
 90
        0
 91
        1
 62
     0
 92
       -2
340
14
 93
        0
 40
0.045
309
GRIDFORMAT_END
 95
        8
302
GRIDFORMAT
  1
GRIDFORMAT_BEGIN
 90
        0
 91
        1
 62
     0
 92
       -2
340
14
 93
        0
 40
0.045
309
GRIDFORMAT_END
 95
       16
302
GRIDFORMAT
  1
GRIDFORMAT_BEGIN
 90
        0
 91
        1
 62
     0
 92
       -2
340
14
 93
        0
 40
0.045
309
GRIDFORMAT_END
 95
       32
302
GRIDFORMAT
  1
GRIDFORMAT_BEGIN
 90
        0
 91
        1
 62
     0
 92
       -2
340
14
 93
        0
 40
0.045
309
GRIDFORMAT_END
309
TABLEFORMAT_END
  1
CELLSTYLE_BEGIN
 90
        3
 91
        2
300
_DATA
309
CELLSTYLE_END
  0
ENDSEC
  0
EOF
