  0
SECTION
  2
HEADER
  9
$ACADVER
  1
AC1027
  9
$ACADMAINTVER
 70
   105
  9
$DWGCODEPAGE
  3
ANSI_932
  9
$LASTSAVEDBY
  1
a.yasuda
  9
$REQUIREDVERSIONS
160
                 0
  9
$INSBASE
 10
0.0
 20
0.0
 30
0.0
  9
$EXTMIN
 10
0.0
 20
0.0
 30
0.0
  9
$EXTMAX
 10
302.9997823349792
 20
216.0016055409748
 30
0.0
  9
$LIMMIN
 10
0.0
 20
0.0
  9
$LIMMAX
 10
302.9997823349792
 20
216.0016055409748
  9
$ORTHOMODE
 70
     0
  9
$REGENMODE
 70
     1
  9
$FILLMODE
 70
     1
  9
$QTEXTMODE
 70
     0
  9
$MIRRTEXT
 70
     1
  9
$LTSCALE
 40
1.0
  9
$ATTMODE
 70
     1
  9
$TEXTSIZE
 40
2.5
  9
$TRACEWID
 40
1.0
  9
$TEXTSTYLE
  7
Standard
  9
$CLAYER
  8
0
  9
$CELTYPE
  6
ByLayer
  9
$CECOLOR
 62
   256
  9
$CELTSCALE
 40
1.0
  9
$DISPSILH
 70
     0
  9
$DIMSCALE
 40
1.0
  9
$DIMASZ
 40
2.5
  9
$DIMEXO
 40
0.625
  9
$DIMDLI
 40
3.75
  9
$DIMRND
 40
0.0
  9
$DIMDLE
 40
0.0
  9
$DIMEXE
 40
1.25
  9
$DIMTP
 40
0.0
  9
$DIMTM
 40
0.0
  9
$DIMTXT
 40
2.5
  9
$DIMCEN
 40
2.5
  9
$DIMTSZ
 40
0.0
  9
$DIMTOL
 70
     0
  9
$DIMLIM
 70
     0
  9
$DIMTIH
 70
     0
  9
$DIMTOH
 70
     0
  9
$DIMSE1
 70
     0
  9
$DIMSE2
 70
     0
  9
$DIMTAD
 70
     1
  9
$DIMZIN
 70
     8
  9
$DIMBLK
  1

  9
$DIMASO
 70
     1
  9
$DIMSHO
 70
     1
  9
$DIMPOST
  1

  9
$DIMAPOST
  1

  9
$DIMALT
 70
     0
  9
$DIMALTD
 70
     3
  9
$DIMALTF
 40
0.03937007874016
  9
$DIMLFAC
 40
1.0
  9
$DIMTOFL
 70
     1
  9
$DIMTVP
 40
0.0
  9
$DIMTIX
 70
     0
  9
$DIMSOXD
 70
     0
  9
$DIMSAH
 70
     0
  9
$DIMBLK1
  1

  9
$DIMBLK2
  1

  9
$DIMSTYLE
  2
ISO-25
  9
$DIMCLRD
 70
     0
  9
$DIMCLRE
 70
     0
  9
$DIMCLRT
 70
     0
  9
$DIMTFAC
 40
1.0
  9
$DIMGAP
 40
0.625
  9
$DIMJUST
 70
     0
  9
$DIMSD1
 70
     0
  9
$DIMSD2
 70
     0
  9
$DIMTOLJ
 70
     0
  9
$DIMTZIN
 70
     8
  9
$DIMALTZ
 70
     0
  9
$DIMALTTZ
 70
     0
  9
$DIMUPT
 70
     0
  9
$DIMDEC
 70
     2
  9
$DIMTDEC
 70
     2
  9
$DIMALTU
 70
     2
  9
$DIMALTTD
 70
     3
  9
$DIMTXSTY
  7
Standard
  9
$DIMAUNIT
 70
     0
  9
$DIMADEC
 70
     0
  9
$DIMALTRND
 40
0.0
  9
$DIMAZIN
 70
     0
  9
$DIMDSEP
 70
    44
  9
$DIMATFIT
 70
     3
  9
$DIMFRAC
 70
     0
  9
$DIMLDRBLK
  1

  9
$DIMLUNIT
 70
     2
  9
$DIMLWD
 70
    -2
  9
$DIMLWE
 70
    -2
  9
$DIMTMOVE
 70
     0
  9
$DIMFXL
 40
1.0
  9
$DIMFXLON
 70
     0
  9
$DIMJOGANG
 40
0.7853981633974483
  9
$DIMTFILL
 70
     0
  9
$DIMTFILLCLR
 70
     0
  9
$DIMARCSYM
 70
     0
  9
$DIMLTYPE
  6

  9
$DIMLTEX1
  6

  9
$DIMLTEX2
  6

  9
$DIMTXTDIRECTION
 70
     0
  9
$LUNITS
 70
     2
  9
$LUPREC
 70
     4
  9
$SKETCHINC
 40
1.0
  9
$FILLETRAD
 40
0.0
  9
$AUNITS
 70
     0
  9
$AUPREC
 70
     0
  9
$MENU
  1
.
  9
$ELEVATION
 40
0.0
  9
$PELEVATION
 40
0.0
  9
$THICKNESS
 40
0.0
  9
$LIMCHECK
 70
     0
  9
$CHAMFERA
 40
0.0
  9
$CHAMFERB
 40
0.0
  9
$CHAMFERC
 40
0.0
  9
$CHAMFERD
 40
0.0
  9
$SKPOLY
 70
     0
  9
$TDCREATE
 40
2459873.45757272
  9
$TDUCREATE
 40
2459873.08257272
  9
$TDUPDATE
 40
2459873.457572766
  9
$TDUUPDATE
 40
2459873.082572766
  9
$TDINDWG
 40
0.0000000116
  9
$TDUSRTIMER
 40
0.0000000116
  9
$USRTIMER
 70
     1
  9
$ANGBASE
 50
0.0
  9
$ANGDIR
 70
     0
  9
$PDMODE
 70
     0
  9
$PDSIZE
 40
0.0
  9
$PLINEWID
 40
0.0
  9
$SPLFRAME
 70
     0
  9
$SPLINETYPE
 70
     6
  9
$SPLINESEGS
 70
     8
  9
$HANDSEED
  5
9C
  9
$SURFTAB1
 70
     6
  9
$SURFTAB2
 70
     6
  9
$SURFTYPE
 70
     6
  9
$SURFU
 70
     6
  9
$SURFV
 70
     6
  9
$UCSBASE
  2

  9
$UCSNAME
  2

  9
$UCSORG
 10
0.0
 20
0.0
 30
0.0
  9
$UCSXDIR
 10
1.0
 20
0.0
 30
0.0
  9
$UCSYDIR
 10
0.0
 20
1.0
 30
0.0
  9
$UCSORTHOREF
  2

  9
$UCSORTHOVIEW
 70
     0
  9
$UCSORGTOP
 10
0.0
 20
0.0
 30
0.0
  9
$UCSORGBOTTOM
 10
0.0
 20
0.0
 30
0.0
  9
$UCSORGLEFT
 10
0.0
 20
0.0
 30
0.0
  9
$UCSORGRIGHT
 10
0.0
 20
0.0
 30
0.0
  9
$UCSORGFRONT
 10
0.0
 20
0.0
 30
0.0
  9
$UCSORGBACK
 10
0.0
 20
0.0
 30
0.0
  9
$PUCSBASE
  2

  9
$PUCSNAME
  2

  9
$PUCSORG
 10
0.0
 20
0.0
 30
0.0
  9
$PUCSXDIR
 10
1.0
 20
0.0
 30
0.0
  9
$PUCSYDIR
 10
0.0
 20
1.0
 30
0.0
  9
$PUCSORTHOREF
  2

  9
$PUCSORTHOVIEW
 70
     0
  9
$PUCSORGTOP
 10
0.0
 20
0.0
 30
0.0
  9
$PUCSORGBOTTOM
 10
0.0
 20
0.0
 30
0.0
  9
$PUCSORGLEFT
 10
0.0
 20
0.0
 30
0.0
  9
$PUCSORGRIGHT
 10
0.0
 20
0.0
 30
0.0
  9
$PUCSORGFRONT
 10
0.0
 20
0.0
 30
0.0
  9
$PUCSORGBACK
 10
0.0
 20
0.0
 30
0.0
  9
$USERI1
 70
     0
  9
$USERI2
 70
     0
  9
$USERI3
 70
     0
  9
$USERI4
 70
     0
  9
$USERI5
 70
     0
  9
$USERR1
 40
0.0
  9
$USERR2
 40
0.0
  9
$USERR3
 40
0.0
  9
$USERR4
 40
0.0
  9
$USERR5
 40
0.0
  9
$WORLDVIEW
 70
     1
  9
$SHADEDGE
 70
     3
  9
$SHADEDIF
 70
    70
  9
$TILEMODE
 70
     1
  9
$MAXACTVP
 70
    64
  9
$PINSBASE
 10
0.0
 20
0.0
 30
0.0
  9
$PLIMCHECK
 70
     0
  9
$PEXTMIN
 10
1.000000000000000E+20
 20
1.000000000000000E+20
 30
1.000000000000000E+20
  9
$PEXTMAX
 10
-1.000000000000000E+20
 20
-1.000000000000000E+20
 30
-1.000000000000000E+20
  9
$PLIMMIN
 10
0.0
 20
0.0
  9
$PLIMMAX
 10
420.0
 20
297.0
  9
$UNITMODE
 70
     0
  9
$VISRETAIN
 70
     1
  9
$PLINEGEN
 70
     0
  9
$PSLTSCALE
 70
     1
  9
$TREEDEPTH
 70
  3020
  9
$CMLSTYLE
  2
Standard
  9
$CMLJUST
 70
     0
  9
$CMLSCALE
 40
20.0
  9
$PROXYGRAPHICS
 70
     1
  9
$MEASUREMENT
 70
     1
  9
$CELWEIGHT
370
    -1
  9
$ENDCAPS
280
     0
  9
$JOINSTYLE
280
     0
  9
$LWDISPLAY
290
     0
  9
$INSUNITS
 70
     4
  9
$HYPERLINKBASE
  1

  9
$STYLESHEET
  1

  9
$XEDIT
290
     1
  9
$CEPSNTYPE
380
     0
  9
$PSTYLEMODE
290
     1
  9
$FINGERPRINTGUID
  2
{641eb6da-c694-4704-bf63-7e3e5d8bc47d}
  9
$VERSIONGUID
  2
{FAEB1C32-E019-11D5-929B-00C0DF256EC4}
  9
$EXTNAMES
290
     1
  9
$PSVPSCALE
 40
0.0
  9
$OLESTARTUP
290
     0
  9
$SORTENTS
280
   127
  9
$INDEXCTL
280
     0
  9
$HIDETEXT
280
     1
  9
$XCLIPFRAME
280
     2
  9
$HALOGAP
280
     0
  9
$OBSCOLOR
 70
   257
  9
$OBSLTYPE
280
     0
  9
$INTERSECTIONDISPLAY
280
     0
  9
$INTERSECTIONCOLOR
 70
   257
  9
$DIMASSOC
280
     2
  9
$PROJECTNAME
  1

  9
$CAMERADISPLAY
290
     0
  9
$LENSLENGTH
 40
50.0
  9
$CAMERAHEIGHT
 40
0.0
  9
$STEPSPERSEC
 40
2.0
  9
$STEPSIZE
 40
6.0
  9
$3DDWFPREC
 40
2.0
  9
$PSOLWIDTH
 40
5.0
  9
$PSOLHEIGHT
 40
80.0
  9
$LOFTANG1
 40
1.570796326794897
  9
$LOFTANG2
 40
1.570796326794897
  9
$LOFTMAG1
 40
0.0
  9
$LOFTMAG2
 40
0.0
  9
$LOFTPARAM
 70
     7
  9
$LOFTNORMALS
280
     1
  9
$LATITUDE
 40
37.795
  9
$LONGITUDE
 40
-122.394
  9
$NORTHDIRECTION
 40
0.0
  9
$TIMEZONE
 70
 -8000
  9
$LIGHTGLYPHDISPLAY
280
     1
  9
$TILEMODELIGHTSYNCH
280
     1
  9
$CMATERIAL
347
44
  9
$SOLIDHIST
280
     0
  9
$SHOWHIST
280
     1
  9
$DWFFRAME
280
     2
  9
$DGNFRAME
280
     2
  9
$REALWORLDSCALE
290
     1
  9
$INTERFERECOLOR
 62
   256
  9
$CSHADOW
280
     0
  9
$SHADOWPLANELOCATION
 40
0.0
  0
ENDSEC
  0
SECTION
  2
CLASSES
  0
CLASS
  1
ACDBDICTIONARYWDFLT
  2
AcDbDictionaryWithDefault
  3
ObjectDBX Classes
 90
        0
 91
        3
280
     0
281
     0
  0
CLASS
  1
VISUALSTYLE
  2
AcDbVisualStyle
  3
ObjectDBX Classes
 90
     4095
 91
        3
280
     0
281
     0
  0
CLASS
  1
MATERIAL
  2
AcDbMaterial
  3
ObjectDBX Classes
 90
     1153
 91
        3
280
     0
281
     0
  0
CLASS
  1
SCALE
  2
AcDbScale
  3
ObjectDBX Classes
 90
     1153
 91
        3
280
     0
281
     0
  0
CLASS
  1
TABLESTYLE
  2
AcDbTableStyle
  3
ObjectDBX Classes
 90
     4095
 91
        3
280
     0
281
     0
  0
CLASS
  1
MLEADERSTYLE
  2
AcDbMLeaderStyle
  3
ACDB_MLEADERSTYLE_CLASS
 90
     4095
 91
        3
280
     0
281
     0
  0
CLASS
  1
SUN
  2
AcDbSun
  3
SCENEOE
 90
     1153
 91
        3
280
     0
281
     0
  0
CLASS
  1
DICTIONARYVAR
  2
AcDbDictionaryVar
  3
ObjectDBX Classes
 90
        0
 91
        3
280
     0
281
     0
  0
CLASS
  1
CELLSTYLEMAP
  2
AcDbCellStyleMap
  3
ObjectDBX Classes
 90
     1152
 91
        3
280
     0
281
     0
  0
ENDSEC
  0
SECTION
  2
TABLES
  0
TABLE
  2
VPORT
  5
8
330
0
100
AcDbSymbolTable
 70
     1
  0
VPORT
  5
29
330
8
100
AcDbSymbolTableRecord
100
AcDbViewportTableRecord
  2
*Active
 70
     0
 10
0.0
 20
0.0
 11
1.0
 21
1.0
 12
151.4998911674896
 22
108.0008027704874
 13
0.0
 23
0.0
 14
10.0
 24
10.0
 15
10.0
 25
10.0
 16
0.0
 26
0.0
 36
1.0
 17
0.0
 27
0.0
 37
0.0
 40
237.6017660950723
 41
1.402766343222857
 42
50.0
 43
0.0
 44
0.0
 50
0.0
 51
0.0
 71
     0
 72
 10000
 73
     1
 74
     3
 75
     0
 76
     0
 77
     0
 78
     0
281
     0
 65
     1
110
0.0
120
0.0
130
0.0
111
1.0
121
0.0
131
0.0
112
0.0
122
1.0
132
0.0
 79
     0
146
0.0
348
2F
 60
     3
 61
     5
292
     1
282
     1
141
0.0
142
0.0
 63
   250
361
5D
  0
ENDTAB
  0
TABLE
  2
LTYPE
  5
5
330
0
100
AcDbSymbolTable
 70
     1
  0
LTYPE
  5
14
330
5
100
AcDbSymbolTableRecord
100
AcDbLinetypeTableRecord
  2
ByBlock
 70
     0
  3

 72
    65
 73
     0
 40
0.0
  0
LTYPE
  5
15
330
5
100
AcDbSymbolTableRecord
100
AcDbLinetypeTableRecord
  2
ByLayer
 70
     0
  3

 72
    65
 73
     0
 40
0.0
  0
LTYPE
  5
16
330
5
100
AcDbSymbolTableRecord
100
AcDbLinetypeTableRecord
  2
Continuous
 70
     0
  3
Solid line
 72
    65
 73
     0
 40
0.0
  0
ENDTAB
  0
TABLE
  2
LAYER
  5
2
330
0
100
AcDbSymbolTable
 70
     3
  0
LAYER
  5
10
330
2
100
AcDbSymbolTableRecord
100
AcDbLayerTableRecord
  2
0
 70
     0
 62
     7
  6
Continuous
370
    -3
390
F
347
46
348
0
  0
LAYER
  5
5F
330
2
100
AcDbSymbolTableRecord
100
AcDbLayerTableRecord
  2
外枠
 70
     0
 62
     7
  6
Continuous
370
    -3
390
F
347
46
348
0
  0
LAYER
  5
60
330
2
100
AcDbSymbolTableRecord
100
AcDbLayerTableRecord
  2
ISS138金台
 70
     0
 62
     7
  6
Continuous
370
    -3
390
F
347
46
348
0
  0
ENDTAB
  0
TABLE
  2
STYLE
  5
3
330
0
100
AcDbSymbolTable
 70
     2
  0
STYLE
  5
11
330
3
100
AcDbSymbolTableRecord
100
AcDbTextStyleTableRecord
  2
Standard
 70
     0
 40
0.0
 41
1.0
 50
0.0
 71
     0
 42
2.5
  3

  4

  0
STYLE
  5
5E
330
3
100
AcDbSymbolTableRecord
100
AcDbTextStyleTableRecord
  2
MS Gothic
 70
     0
 40
1.0
 41
1.0
 50
0.0
 71
     0
 42
2.5
  3
msgothic.ttc
  4

1001
ACAD
1000
MS Gothic
1071
    32817
  0
ENDTAB
  0
TABLE
  2
VIEW
  5
6
330
0
100
AcDbSymbolTable
 70
     0
  0
ENDTAB
  0
TABLE
  2
UCS
  5
7
330
0
100
AcDbSymbolTable
 70
     0
  0
ENDTAB
  0
TABLE
  2
APPID
  5
9
330
0
100
AcDbSymbolTable
 70
     1
  0
APPID
  5
12
330
9
100
AcDbSymbolTableRecord
100
AcDbRegAppTableRecord
  2
ACAD
 70
     0
  0
ENDTAB
  0
TABLE
  2
DIMSTYLE
  5
A
330
0
100
AcDbSymbolTable
 70
     1
100
AcDbDimStyleTable
  0
DIMSTYLE
105
27
330
A
100
AcDbSymbolTableRecord
100
AcDbDimStyleTableRecord
  2
ISO-25
 70
     0
 41
2.5
 42
0.625
 43
3.75
 44
1.25
 73
     0
 74
     0
 77
     1
 78
     8
140
2.5
141
2.5
143
0.03937007874016
147
0.625
171
     3
172
     1
178
     0
271
     2
272
     2
274
     3
278
    44
283
     0
284
     8
340
11
  0
ENDTAB
  0
TABLE
  2
BLOCK_RECORD
  5
1
330
0
100
AcDbSymbolTable
 70
     1
  0
BLOCK_RECORD
  5
1F
330
1
100
AcDbSymbolTableRecord
100
AcDbBlockTableRecord
  2
*Model_Space
340
22
 70
     0
280
     1
281
     0
  0
BLOCK_RECORD
  5
1B
330
1
100
AcDbSymbolTableRecord
100
AcDbBlockTableRecord
  2
*Paper_Space
340
1E
 70
     0
280
     1
281
     0
  0
BLOCK_RECORD
  5
23
330
1
100
AcDbSymbolTableRecord
100
AcDbBlockTableRecord
  2
*Paper_Space0
340
26
 70
     0
280
     1
281
     0
  0
ENDTAB
  0
ENDSEC
  0
SECTION
  2
BLOCKS
  0
BLOCK
  5
20
330
1F
100
AcDbEntity
  8
0
100
AcDbBlockBegin
  2
*Model_Space
 70
     0
 10
0.0
 20
0.0
 30
0.0
  3
*Model_Space
  1

  0
ENDBLK
  5
21
330
1F
100
AcDbEntity
  8
0
100
AcDbBlockEnd
  0
BLOCK
  5
1C
330
1B
100
AcDbEntity
 67
     1
  8
0
100
AcDbBlockBegin
  2
*Paper_Space
 70
     0
 10
0.0
 20
0.0
 30
0.0
  3
*Paper_Space
  1

  0
ENDBLK
  5
1D
330
1B
100
AcDbEntity
 67
     1
  8
0
100
AcDbBlockEnd
  0
BLOCK
  5
24
330
23
100
AcDbEntity
  8
0
100
AcDbBlockBegin
  2
*Paper_Space0
 70
     0
 10
0.0
 20
0.0
 30
0.0
  3
*Paper_Space0
  1

  0
ENDBLK
  5
25
330
23
100
AcDbEntity
  8
0
100
AcDbBlockEnd
  0
ENDSEC
  0
SECTION
  2
ENTITIES
  0
LWPOLYLINE
  5
61
330
1F
100
AcDbEntity
  8
外枠
  6
Continuous
 62
   250
420
  2367521
370
   100
100
AcDbPolyline
 90
        5
 70
     0
 43
0.0
 10
281.9999662644599
 20
13.29407825637392
 10
20.99981607051935
 20
13.29407825637392
 10
20.99981607051935
 20
193.0018900389566
 10
281.9999662644599
 20
193.0018900389566
 10
281.9999662644599
 20
13.29407825637392
  0
LINE
  5
62
330
1F
100
AcDbEntity
  8
外枠
  6
Continuous
 62
   250
420
  2367521
370
    25
100
AcDbLine
 10
223.3097080177524
 20
174.0786160074276
 30
0.0
 11
281.9999232007669
 21
174.0786160074276
 31
0.0
  0
LINE
  5
63
330
1F
100
AcDbEntity
  8
外枠
  6
Continuous
 62
   250
420
  2367521
370
    25
100
AcDbLine
 10
223.3097080177524
 20
50.37109023844297
 30
0.0
 11
281.9999232007669
 21
50.37109023844297
 31
0.0
  0
LINE
  5
64
330
1F
100
AcDbEntity
  8
外枠
  6
Continuous
 62
   250
420
  2367521
370
    25
100
AcDbLine
 10
223.3097080177524
 20
36.25997933925949
 30
0.0
 11
281.9999232007669
 21
36.25997933925949
 31
0.0
  0
LINE
  5
65
330
1F
100
AcDbEntity
  8
外枠
  6
Continuous
 62
   250
420
  2367521
370
    50
100
AcDbLine
 10
223.0158413772006
 20
193.3637327187979
 30
0.0
 11
223.0158413772006
 21
13.29396655992039
 31
0.0
  0
TEXT
  5
66
330
1F
100
AcDbEntity
  8
外枠
  6
Continuous
 62
   250
420
  2367521
100
AcDbText
 10
224.7190965599536
 20
186.6888051931772
 30
0.0
 40
2.688166626294454
  1
品名：
 41
0.974166170756022
  7
MS Gothic
100
AcDbText
  0
TEXT
  5
67
330
1F
100
AcDbEntity
  8
外枠
  6
Continuous
 62
   250
420
  2367521
100
AcDbText
 10
224.7190965599536
 20
168.1080059455944
 30
0.0
 40
2.688166626294454
  1
仕様：
 41
0.9978878657023111
  7
MS Gothic
100
AcDbText
  0
TEXT
  5
68
330
1F
100
AcDbEntity
  8
外枠
  6
Continuous
 62
   250
420
  2367521
100
AcDbText
 10
224.7190965599536
 20
44.16660664327048
 30
0.0
 40
2.688166626294454
  1
縮尺：
 41
0.9939999262491861
  7
MS Gothic
100
AcDbText
  0
TEXT
  5
69
330
1F
100
AcDbEntity
  8
外枠
  6
Continuous
 62
   250
420
  2367521
100
AcDbText
 10
250.2379519709696
 20
40.59738467878129
 30
0.0
 40
2.150533301035563
  1
1/1
 41
1.000003814697266
  7
MS Gothic
100
AcDbText
  0
TEXT
  5
6A
330
1F
100
AcDbEntity
  8
外枠
  6
Continuous
 62
   250
420
  2367521
100
AcDbText
 10
232.7757967427735
 20
181.9845273775436
 30
0.0
 40
2.688166626294454
  1
アドロック R-4508
 41
0.996917365579044
  7
MS Gothic
100
AcDbText
  0
TEXT
  5
6B
330
1F
100
AcDbEntity
  8
外枠
  6
Continuous
 62
   250
420
  2367521
100
AcDbText
 10
226.1633020978884
 20
24.25683874973963
 30
0.0
 40
2.553758294979732
  1
ヤスダインテリアサプライ株式会社
 41
1.0194908945184
  7
MS Gothic
100
AcDbText
  0
TEXT
  5
6C
330
1F
100
AcDbEntity
  8
外枠
  6
Continuous
 62
   250
420
  2367521
100
AcDbText
 10
227.7635273953072
 20
161.7763665048245
 30
0.0
 40
2.150533301035563
  1
材質
 41
1.028502464294433
  7
MS Gothic
100
AcDbText
  0
TEXT
  5
6D
330
1F
100
AcDbEntity
  8
外枠
  6
Continuous
 62
   250
420
  2367521
100
AcDbText
 10
232.7757967427735
 20
156.199681315683
 30
0.0
 40
2.016124969720841
  1
軟質塩ビ
 41
1.052407201131185
  7
MS Gothic
100
AcDbText
  0
HATCH
  5
6E
330
1F
100
AcDbEntity
  8
ISS138金台
  6
Continuous
 62
   254
420
 13816532
370
    50
100
AcDbHatch
 10
0.0
 20
0.0
 30
0.0
210
0.0
220
0.0
230
1.0
  2
SOLID
 70
     1
 71
     0
 91
        1
 92
        3
 72
     0
 73
     1
 93
      164
 10
99.51432693222968
 20
106.0534625762092
 10
100.6643859156086
 20
106.5868602427589
 10
100.6355870709619
 20
106.6579261020161
 10
100.6142920748082
 20
106.7300362558267
 10
100.6003502042222
 20
106.802727769492
 10
100.5936322681252
 20
106.8754946446198
 10
100.5939552458221
 20
106.9478416487416
 10
100.6011791803111
 20
107.0193058471583
 10
100.6151533486668
 20
107.0893920074013
 10
100.6357162620407
 20
107.1576156629251
 10
100.6627279634308
 20
107.2234708153377
 10
100.6960161980654
 20
107.2865052958635
 10
100.7354517748657
 20
107.3462023401872
 10
100.78086243906
 20
107.4020882476867
 10
100.8321082336463
 20
107.4536893177396
 10
100.8890169038528
 20
107.5004995519541
 10
100.9514592586007
 20
107.5420344837847
 10
101.0192738090417
 20
107.5778204126093
 10
101.0192738090417
 20
107.5778204126093
 10
101.0905119230706
 20
107.6065654276398
 10
101.162891224962
 20
107.6275697438662
 10
101.2358841844778
 20
107.6410271479068
 10
101.3090278669188
 20
107.6471206604563
 10
101.3817839761234
 20
107.6460225362866
 10
101.4536680455462
 20
107.6379265620158
 10
101.5241956086417
 20
107.6229942264925
 10
101.5928499010948
 20
107.6014516141044
 10
101.6591356904367
 20
107.5734602137002
 10
101.7225469782756
 20
107.5391922800514
 10
101.782599298066
 20
107.4988415997763
 10
101.8387758854927
 20
107.4526019594931
 10
101.8905922740103
 20
107.4006456139735
 10
101.9375316993036
 20
107.3431663498357
 10
101.9791096948272
 20
107.2803364218513
 10
102.0148202621891
 20
107.2123388507155
 10
105.6554786920767
 20
108.9000265084744
 10
105.626722911123
 20
108.9711569632709
 10
105.6057185948965
 20
109.0434178400068
 10
105.5922288930863
 20
109.1163462039832
 10
105.5861138486903
 20
109.189436056808
 10
105.5871904410136
 20
109.2621491023197
 10
105.5952541175146
 20
109.3340224058193
 10
105.6101218574986
 20
109.4045392029915
 10
105.6316214061937
 20
109.4731934954446
 10
105.659569742905
 20
109.539500816633
 10
105.6937838469376
 20
109.6029551681649
 10
105.7340699316733
 20
109.6630505516482
 10
105.7802449764171
 20
109.7192702027678
 10
105.8321367263973
 20
109.7711404209015
 10
105.889562160919
 20
109.8181444417342
 10
105.952327493364
 20
109.8597870327972
 10
106.0202497030372
 20
109.8955621956985
 10
106.0202497030372
 20
109.8955621956985
 10
106.0914985829893
 20
109.9243179766523
 10
106.1638671189576
 20
109.9453222928787
 10
106.2368708443965
 20
109.9587796969192
 10
106.3100037609143
 20
109.9648624435455
 10
106.3827814019654
 20
109.963775085299
 10
106.4546870032346
 20
109.9556791110283
 10
106.5252360981766
 20
109.9407790732746
 10
106.5939119224762
 20
109.9192472268098
 10
106.660240775511
 20
109.8912665923288
 10
106.7236951270428
 20
109.8570201905265
 10
106.7838012764494
 20
109.8167018080211
 10
106.8400532253387
 20
109.7704944655076
 10
106.8919342093957
 20
109.7185811836809
 10
106.9389705279981
 20
109.661144983236
 10
106.9806669486772
 20
109.5983688848679
 10
107.0164959411947
 20
109.5304359092713
 10
110.6363546073974
 20
111.2086064908928
 10
110.6076095923668
 20
111.2797907753055
 10
110.5865945102172
 20
111.3521270135041
 10
110.5731371061766
 20
111.4250876752501
 10
110.5670543595503
 20
111.4981990599214
 10
110.56815248372
 20
111.570955169126
 10
110.5762484579908
 20
111.6428500044721
 10
110.5911700275909
 20
111.7133775675676
 10
110.612712639979
 20
111.7820533918671
 10
110.6407148063065
 20
111.8483391812091
 10
110.6749827399552
 20
111.9117827668176
 10
110.7153226543071
 20
111.9718566184545
 10
110.7615622945903
 20
112.0280439718044
 10
110.8135186401099
 20
112.0798818921685
 10
110.871008670171
 20
112.1268428493083
 10
110.9338385981553
 20
112.1684316107551
 10
111.0018254033679
 20
112.204142178117
 10
111.0018254033679
 20
112.204142178117
 10
111.0729450922412
 20
112.2328871931475
 10
111.1452275008236
 20
112.2539022752972
 10
111.2181558648
 20
112.2673596793377
 10
111.2912349517016
 20
112.2734531918872
 10
111.3639479972133
 20
112.2723658336407
 10
111.4358213007128
 20
112.2642806252932
 10
111.5063488638083
 20
112.2493913534628
 10
111.5750031562614
 20
112.227859506998
 10
111.6413104774498
 20
112.1999004043634
 10
111.7047540630584
 20
112.1656863003308
 10
111.7648494465417
 20
112.1254002155951
 10
111.8210798635846
 20
112.0792251708513
 10
111.8729500817183
 20
112.0273549527176
 10
111.919954102551
 20
111.9699618159656
 10
111.961596693614
 20
111.9072395472136
 10
111.9973718565153
 20
111.8393711671565
 10
115.6175750322614
 20
113.5171864733113
 10
115.5888300172309
 20
113.5883169281078
 10
115.567804169158
 20
113.6605993366902
 10
115.5543575310407
 20
113.7335384665898
 10
115.5482640184912
 20
113.8066390853378
 10
115.5493621426609
 20
113.879373662696
 10
115.5574473510084
 20
113.951268498042
 10
115.5723581546853
 20
114.021817592984
 10
115.5938900011501
 20
114.0904934172835
 10
115.6218706356311
 20
114.1568115043952
 10
115.6561170374334
 20
114.220265855927
 10
115.6964354199388
 20
114.2803612394103
 10
115.7426427624523
 20
114.33658089053
 10
115.794556044279
 20
114.3884295768172
 10
115.8519922447239
 20
114.4354012998802
 10
115.9147683430921
 20
114.4770008272503
 10
115.9827013186886
 20
114.5127221605354
 10
115.9827013186886
 20
114.5127221605354
 10
116.0538856031013
 20
114.5414779414892
 10
116.1262110753766
 20
114.5624822577156
 10
116.1991932689691
 20
114.5759719595258
 10
116.2723046536404
 20
114.5820762379986
 10
116.345060762845
 20
114.5809996456753
 10
116.416955598191
 20
114.572925203251
 10
116.487504693133
 20
114.5580574632671
 10
116.5561805174326
 20
114.5365256168023
 10
116.6225093704674
 20
114.5085772800909
 10
116.6859637219992
 20
114.4743308782886
 10
116.7460591054826
 20
114.4340124957833
 10
116.8022895225254
 20
114.3878051532698
 10
116.8541705065824
 20
114.3358703395966
 10
116.9011745274151
 20
114.278401841382
 10
116.9428171184781
 20
114.2155826793209
 10
116.9785922813793
 20
114.1475958741082
 10
119.3280935380042
 20
115.2429747333897
 10
119.4903682988863
 20
115.1156138615503
 10
117.4841169726804
 20
107.2440875583278
 10
144.493492923377
 20
106.4503375702487
 10
144.493492923377
 20
105.7447820252896
 10
113.6917559185248
 20
105.7447820252896
 10
113.4931461667333
 20
105.5461722734981
 10
113.2948809244853
 20
105.7447820252896
 10
111.6851600827754
 20
105.7447820252896
 10
111.4868948405274
 20
105.5461722734981
 10
111.2882850887359
 20
105.7447820252896
 10
109.7007851125778
 20
105.7447820252896
 10
109.5025198703297
 20
105.5461722734981
 10
109.28203376253
 20
105.7447820252896
 10
107.6945337863718
 20
105.7447820252896
 10
107.4959240345803
 20
105.5461722734981
 10
107.2976587923323
 20
105.7447820252896
 10
105.6879379506224
 20
105.7447820252896
 10
105.4896727083744
 20
105.5461722734981
 10
105.2910629565829
 20
105.7447820252896
 10
103.6816866244165
 20
105.7447820252896
 10
103.483076872625
 20
105.5461722734981
 10
103.284811630377
 20
105.7447820252896
 10
101.6973116542188
 20
105.7447820252896
 10
101.4987019024274
 20
105.5461722734981
 10
101.3004366601793
 20
105.7447820252896
 10
99.49210606667799
 20
105.7447820252896
 97
        0
 75
     1
 76
     1
 98
        0
  0
LWPOLYLINE
  5
6F
330
1F
100
AcDbEntity
  8
ISS138金台
  6
Continuous
 62
   254
420
 13816532
370
    50
100
AcDbPolyline
 90
      165
 70
     0
 43
0.0
 10
99.51432693222968
 20
106.0534625762092
 10
100.6643859156086
 20
106.5868602427589
 10
100.6355870709619
 20
106.6579261020161
 10
100.6142920748082
 20
106.7300362558267
 10
100.6003502042222
 20
106.802727769492
 10
100.5936322681252
 20
106.8754946446198
 10
100.5939552458221
 20
106.9478416487416
 10
100.6011791803111
 20
107.0193058471583
 10
100.6151533486668
 20
107.0893920074013
 10
100.6357162620407
 20
107.1576156629251
 10
100.6627279634308
 20
107.2234708153377
 10
100.6960161980654
 20
107.2865052958635
 10
100.7354517748657
 20
107.3462023401872
 10
100.78086243906
 20
107.4020882476867
 10
100.8321082336463
 20
107.4536893177396
 10
100.8890169038528
 20
107.5004995519541
 10
100.9514592586007
 20
107.5420344837847
 10
101.0192738090417
 20
107.5778204126093
 10
101.0192738090417
 20
107.5778204126093
 10
101.0905119230706
 20
107.6065654276398
 10
101.162891224962
 20
107.6275697438662
 10
101.2358841844778
 20
107.6410271479068
 10
101.3090278669188
 20
107.6471206604563
 10
101.3817839761234
 20
107.6460225362866
 10
101.4536680455462
 20
107.6379265620158
 10
101.5241956086417
 20
107.6229942264925
 10
101.5928499010948
 20
107.6014516141044
 10
101.6591356904367
 20
107.5734602137002
 10
101.7225469782756
 20
107.5391922800514
 10
101.782599298066
 20
107.4988415997763
 10
101.8387758854927
 20
107.4526019594931
 10
101.8905922740103
 20
107.4006456139735
 10
101.9375316993036
 20
107.3431663498357
 10
101.9791096948272
 20
107.2803364218513
 10
102.0148202621891
 20
107.2123388507155
 10
105.6554786920767
 20
108.9000265084744
 10
105.626722911123
 20
108.9711569632709
 10
105.6057185948965
 20
109.0434178400068
 10
105.5922288930863
 20
109.1163462039832
 10
105.5861138486903
 20
109.189436056808
 10
105.5871904410136
 20
109.2621491023197
 10
105.5952541175146
 20
109.3340224058193
 10
105.6101218574986
 20
109.4045392029915
 10
105.6316214061937
 20
109.4731934954446
 10
105.659569742905
 20
109.539500816633
 10
105.6937838469376
 20
109.6029551681649
 10
105.7340699316733
 20
109.6630505516482
 10
105.7802449764171
 20
109.7192702027678
 10
105.8321367263973
 20
109.7711404209015
 10
105.889562160919
 20
109.8181444417342
 10
105.952327493364
 20
109.8597870327972
 10
106.0202497030372
 20
109.8955621956985
 10
106.0202497030372
 20
109.8955621956985
 10
106.0914985829893
 20
109.9243179766523
 10
106.1638671189576
 20
109.9453222928787
 10
106.2368708443965
 20
109.9587796969192
 10
106.3100037609143
 20
109.9648624435455
 10
106.3827814019654
 20
109.963775085299
 10
106.4546870032346
 20
109.9556791110283
 10
106.5252360981766
 20
109.9407790732746
 10
106.5939119224762
 20
109.9192472268098
 10
106.660240775511
 20
109.8912665923288
 10
106.7236951270428
 20
109.8570201905265
 10
106.7838012764494
 20
109.8167018080211
 10
106.8400532253387
 20
109.7704944655076
 10
106.8919342093957
 20
109.7185811836809
 10
106.9389705279981
 20
109.661144983236
 10
106.9806669486772
 20
109.5983688848679
 10
107.0164959411947
 20
109.5304359092713
 10
110.6363546073974
 20
111.2086064908928
 10
110.6076095923668
 20
111.2797907753055
 10
110.5865945102172
 20
111.3521270135041
 10
110.5731371061766
 20
111.4250876752501
 10
110.5670543595503
 20
111.4981990599214
 10
110.56815248372
 20
111.570955169126
 10
110.5762484579908
 20
111.6428500044721
 10
110.5911700275909
 20
111.7133775675676
 10
110.612712639979
 20
111.7820533918671
 10
110.6407148063065
 20
111.8483391812091
 10
110.6749827399552
 20
111.9117827668176
 10
110.7153226543071
 20
111.9718566184545
 10
110.7615622945903
 20
112.0280439718044
 10
110.8135186401099
 20
112.0798818921685
 10
110.871008670171
 20
112.1268428493083
 10
110.9338385981553
 20
112.1684316107551
 10
111.0018254033679
 20
112.204142178117
 10
111.0018254033679
 20
112.204142178117
 10
111.0729450922412
 20
112.2328871931475
 10
111.1452275008236
 20
112.2539022752972
 10
111.2181558648
 20
112.2673596793377
 10
111.2912349517016
 20
112.2734531918872
 10
111.3639479972133
 20
112.2723658336407
 10
111.4358213007128
 20
112.2642806252932
 10
111.5063488638083
 20
112.2493913534628
 10
111.5750031562614
 20
112.227859506998
 10
111.6413104774498
 20
112.1999004043634
 10
111.7047540630584
 20
112.1656863003308
 10
111.7648494465417
 20
112.1254002155951
 10
111.8210798635846
 20
112.0792251708513
 10
111.8729500817183
 20
112.0273549527176
 10
111.919954102551
 20
111.9699618159656
 10
111.961596693614
 20
111.9072395472136
 10
111.9973718565153
 20
111.8393711671565
 10
115.6175750322614
 20
113.5171864733113
 10
115.5888300172309
 20
113.5883169281078
 10
115.567804169158
 20
113.6605993366902
 10
115.5543575310407
 20
113.7335384665898
 10
115.5482640184912
 20
113.8066390853378
 10
115.5493621426609
 20
113.879373662696
 10
115.5574473510084
 20
113.951268498042
 10
115.5723581546853
 20
114.021817592984
 10
115.5938900011501
 20
114.0904934172835
 10
115.6218706356311
 20
114.1568115043952
 10
115.6561170374334
 20
114.220265855927
 10
115.6964354199388
 20
114.2803612394103
 10
115.7426427624523
 20
114.33658089053
 10
115.794556044279
 20
114.3884295768172
 10
115.8519922447239
 20
114.4354012998802
 10
115.9147683430921
 20
114.4770008272503
 10
115.9827013186886
 20
114.5127221605354
 10
115.9827013186886
 20
114.5127221605354
 10
116.0538856031013
 20
114.5414779414892
 10
116.1262110753766
 20
114.5624822577156
 10
116.1991932689691
 20
114.5759719595258
 10
116.2723046536404
 20
114.5820762379986
 10
116.345060762845
 20
114.5809996456753
 10
116.416955598191
 20
114.572925203251
 10
116.487504693133
 20
114.5580574632671
 10
116.5561805174326
 20
114.5365256168023
 10
116.6225093704674
 20
114.5085772800909
 10
116.6859637219992
 20
114.4743308782886
 10
116.7460591054826
 20
114.4340124957833
 10
116.8022895225254
 20
114.3878051532698
 10
116.8541705065824
 20
114.3358703395966
 10
116.9011745274151
 20
114.278401841382
 10
116.9428171184781
 20
114.2155826793209
 10
116.9785922813793
 20
114.1475958741082
 10
119.3280935380042
 20
115.2429747333897
 10
119.4903682988863
 20
115.1156138615503
 10
117.4841169726804
 20
107.2440875583278
 10
144.493492923377
 20
106.4503375702487
 10
144.493492923377
 20
105.7447820252896
 10
113.6917559185248
 20
105.7447820252896
 10
113.4931461667333
 20
105.5461722734981
 10
113.2948809244853
 20
105.7447820252896
 10
111.6851600827754
 20
105.7447820252896
 10
111.4868948405274
 20
105.5461722734981
 10
111.2882850887359
 20
105.7447820252896
 10
109.7007851125778
 20
105.7447820252896
 10
109.5025198703297
 20
105.5461722734981
 10
109.28203376253
 20
105.7447820252896
 10
107.6945337863718
 20
105.7447820252896
 10
107.4959240345803
 20
105.5461722734981
 10
107.2976587923323
 20
105.7447820252896
 10
105.6879379506224
 20
105.7447820252896
 10
105.4896727083744
 20
105.5461722734981
 10
105.2910629565829
 20
105.7447820252896
 10
103.6816866244165
 20
105.7447820252896
 10
103.483076872625
 20
105.5461722734981
 10
103.284811630377
 20
105.7447820252896
 10
101.6973116542188
 20
105.7447820252896
 10
101.4987019024274
 20
105.5461722734981
 10
101.3004366601793
 20
105.7447820252896
 10
99.49210606667799
 20
105.7447820252896
 10
99.51432693222968
 20
106.0534625762092
  0
LWPOLYLINE
  5
70
330
1F
100
AcDbEntity
  8
ISS138金台
  6
Continuous
 62
   250
420
  2367521
370
    25
100
AcDbPolyline
 90
      165
 70
     0
 43
0.0
 10
99.51432693222968
 20
106.0534625762092
 10
100.6643859156086
 20
106.5868602427589
 10
100.6355870709619
 20
106.6579261020161
 10
100.6142920748082
 20
106.7300362558267
 10
100.6003502042222
 20
106.802727769492
 10
100.5936322681252
 20
106.8754946446198
 10
100.5939552458221
 20
106.9478416487416
 10
100.6011791803111
 20
107.0193058471583
 10
100.6151533486668
 20
107.0893920074013
 10
100.6357162620407
 20
107.1576156629251
 10
100.6627279634308
 20
107.2234708153377
 10
100.6960161980654
 20
107.2865052958635
 10
100.7354517748657
 20
107.3462023401872
 10
100.78086243906
 20
107.4020882476867
 10
100.8321082336463
 20
107.4536893177396
 10
100.8890169038528
 20
107.5004995519541
 10
100.9514592586007
 20
107.5420344837847
 10
101.0192738090417
 20
107.5778204126093
 10
101.0192738090417
 20
107.5778204126093
 10
101.0905119230706
 20
107.6065654276398
 10
101.162891224962
 20
107.6275697438662
 10
101.2358841844778
 20
107.6410271479068
 10
101.3090278669188
 20
107.6471206604563
 10
101.3817839761234
 20
107.6460225362866
 10
101.4536680455462
 20
107.6379265620158
 10
101.5241956086417
 20
107.6229942264925
 10
101.5928499010948
 20
107.6014516141044
 10
101.6591356904367
 20
107.5734602137002
 10
101.7225469782756
 20
107.5391922800514
 10
101.782599298066
 20
107.4988415997763
 10
101.8387758854927
 20
107.4526019594931
 10
101.8905922740103
 20
107.4006456139735
 10
101.9375316993036
 20
107.3431663498357
 10
101.9791096948272
 20
107.2803364218513
 10
102.0148202621891
 20
107.2123388507155
 10
105.6554786920767
 20
108.9000265084744
 10
105.626722911123
 20
108.9711569632709
 10
105.6057185948965
 20
109.0434178400068
 10
105.5922288930863
 20
109.1163462039832
 10
105.5861138486903
 20
109.189436056808
 10
105.5871904410136
 20
109.2621491023197
 10
105.5952541175146
 20
109.3340224058193
 10
105.6101218574986
 20
109.4045392029915
 10
105.6316214061937
 20
109.4731934954446
 10
105.659569742905
 20
109.539500816633
 10
105.6937838469376
 20
109.6029551681649
 10
105.7340699316733
 20
109.6630505516482
 10
105.7802449764171
 20
109.7192702027678
 10
105.8321367263973
 20
109.7711404209015
 10
105.889562160919
 20
109.8181444417342
 10
105.952327493364
 20
109.8597870327972
 10
106.0202497030372
 20
109.8955621956985
 10
106.0202497030372
 20
109.8955621956985
 10
106.0914985829893
 20
109.9243179766523
 10
106.1638671189576
 20
109.9453222928787
 10
106.2368708443965
 20
109.9587796969192
 10
106.3100037609143
 20
109.9648624435455
 10
106.3827814019654
 20
109.963775085299
 10
106.4546870032346
 20
109.9556791110283
 10
106.5252360981766
 20
109.9407790732746
 10
106.5939119224762
 20
109.9192472268098
 10
106.660240775511
 20
109.8912665923288
 10
106.7236951270428
 20
109.8570201905265
 10
106.7838012764494
 20
109.8167018080211
 10
106.8400532253387
 20
109.7704944655076
 10
106.8919342093957
 20
109.7185811836809
 10
106.9389705279981
 20
109.661144983236
 10
106.9806669486772
 20
109.5983688848679
 10
107.0164959411947
 20
109.5304359092713
 10
110.6363546073974
 20
111.2086064908928
 10
110.6076095923668
 20
111.2797907753055
 10
110.5865945102172
 20
111.3521270135041
 10
110.5731371061766
 20
111.4250876752501
 10
110.5670543595503
 20
111.4981990599214
 10
110.56815248372
 20
111.570955169126
 10
110.5762484579908
 20
111.6428500044721
 10
110.5911700275909
 20
111.7133775675676
 10
110.612712639979
 20
111.7820533918671
 10
110.6407148063065
 20
111.8483391812091
 10
110.6749827399552
 20
111.9117827668176
 10
110.7153226543071
 20
111.9718566184545
 10
110.7615622945903
 20
112.0280439718044
 10
110.8135186401099
 20
112.0798818921685
 10
110.871008670171
 20
112.1268428493083
 10
110.9338385981553
 20
112.1684316107551
 10
111.0018254033679
 20
112.204142178117
 10
111.0018254033679
 20
112.204142178117
 10
111.0729450922412
 20
112.2328871931475
 10
111.1452275008236
 20
112.2539022752972
 10
111.2181558648
 20
112.2673596793377
 10
111.2912349517016
 20
112.2734531918872
 10
111.3639479972133
 20
112.2723658336407
 10
111.4358213007128
 20
112.2642806252932
 10
111.5063488638083
 20
112.2493913534628
 10
111.5750031562614
 20
112.227859506998
 10
111.6413104774498
 20
112.1999004043634
 10
111.7047540630584
 20
112.1656863003308
 10
111.7648494465417
 20
112.1254002155951
 10
111.8210798635846
 20
112.0792251708513
 10
111.8729500817183
 20
112.0273549527176
 10
111.919954102551
 20
111.9699618159656
 10
111.961596693614
 20
111.9072395472136
 10
111.9973718565153
 20
111.8393711671565
 10
115.6175750322614
 20
113.5171864733113
 10
115.5888300172309
 20
113.5883169281078
 10
115.567804169158
 20
113.6605993366902
 10
115.5543575310407
 20
113.7335384665898
 10
115.5482640184912
 20
113.8066390853378
 10
115.5493621426609
 20
113.879373662696
 10
115.5574473510084
 20
113.951268498042
 10
115.5723581546853
 20
114.021817592984
 10
115.5938900011501
 20
114.0904934172835
 10
115.6218706356311
 20
114.1568115043952
 10
115.6561170374334
 20
114.220265855927
 10
115.6964354199388
 20
114.2803612394103
 10
115.7426427624523
 20
114.33658089053
 10
115.794556044279
 20
114.3884295768172
 10
115.8519922447239
 20
114.4354012998802
 10
115.9147683430921
 20
114.4770008272503
 10
115.9827013186886
 20
114.5127221605354
 10
115.9827013186886
 20
114.5127221605354
 10
116.0538856031013
 20
114.5414779414892
 10
116.1262110753766
 20
114.5624822577156
 10
116.1991932689691
 20
114.5759719595258
 10
116.2723046536404
 20
114.5820762379986
 10
116.345060762845
 20
114.5809996456753
 10
116.416955598191
 20
114.572925203251
 10
116.487504693133
 20
114.5580574632671
 10
116.5561805174326
 20
114.5365256168023
 10
116.6225093704674
 20
114.5085772800909
 10
116.6859637219992
 20
114.4743308782886
 10
116.7460591054826
 20
114.4340124957833
 10
116.8022895225254
 20
114.3878051532698
 10
116.8541705065824
 20
114.3358703395966
 10
116.9011745274151
 20
114.278401841382
 10
116.9428171184781
 20
114.2155826793209
 10
116.9785922813793
 20
114.1475958741082
 10
119.3280935380042
 20
115.2429747333897
 10
119.4903682988863
 20
115.1156138615503
 10
117.4841169726804
 20
107.2440875583278
 10
144.493492923377
 20
106.4503375702487
 10
144.493492923377
 20
105.7447820252896
 10
113.6917559185248
 20
105.7447820252896
 10
113.4931461667333
 20
105.5461722734981
 10
113.2948809244853
 20
105.7447820252896
 10
111.6851600827754
 20
105.7447820252896
 10
111.4868948405274
 20
105.5461722734981
 10
111.2882850887359
 20
105.7447820252896
 10
109.7007851125778
 20
105.7447820252896
 10
109.5025198703297
 20
105.5461722734981
 10
109.28203376253
 20
105.7447820252896
 10
107.6945337863718
 20
105.7447820252896
 10
107.4959240345803
 20
105.5461722734981
 10
107.2976587923323
 20
105.7447820252896
 10
105.6879379506224
 20
105.7447820252896
 10
105.4896727083744
 20
105.5461722734981
 10
105.2910629565829
 20
105.7447820252896
 10
103.6816866244165
 20
105.7447820252896
 10
103.483076872625
 20
105.5461722734981
 10
103.284811630377
 20
105.7447820252896
 10
101.6973116542188
 20
105.7447820252896
 10
101.4987019024274
 20
105.5461722734981
 10
101.3004366601793
 20
105.7447820252896
 10
99.49210606667799
 20
105.7447820252896
 10
99.51432693222968
 20
106.0534625762092
  0
LINE
  5
71
330
1F
100
AcDbEntity
  8
ISS138金台
  6
Continuous
 62
   250
420
  2367521
370
    13
100
AcDbLine
 10
99.42613248910979
 20
116.240093011329
 30
0.0
 11
99.42613248910979
 21
121.2452999131549
 31
0.0
  0
LINE
  5
72
330
1F
100
AcDbEntity
  8
ISS138金台
  6
Continuous
 62
   250
420
  2367521
370
    13
100
AcDbLine
 10
99.42613248910979
 20
120.738020376367
 30
0.0
 11
119.5566863859979
 21
120.738020376367
 31
0.0
  0
LINE
  5
73
330
1F
100
AcDbEntity
  8
ISS138金台
  6
Continuous
 62
   250
420
  2367521
370
    13
100
AcDbLine
 10
119.5565248971495
 20
121.2451276583831
 30
0.0
 11
119.5565248971495
 21
116.2399207565573
 31
0.0
  0
LINE
  5
74
330
1F
100
AcDbEntity
  8
ISS138金台
  6
Continuous
 62
   250
420
  2367521
370
    13
100
AcDbLine
 10
99.42613248910979
 20
104.7305459294108
 30
0.0
 11
99.42613248910979
 21
99.74755989313658
 31
0.0
  0
LINE
  5
75
330
1F
100
AcDbEntity
  8
ISS138金台
  6
Continuous
 62
   250
420
  2367521
370
    13
100
AcDbLine
 10
144.5596602875634
 20
104.7305459294108
 30
0.0
 11
144.5596602875634
 21
99.74755989313658
 31
0.0
  0
LINE
  5
76
330
1F
100
AcDbEntity
  8
ISS138金台
  6
Continuous
 62
   250
420
  2367521
370
    13
100
AcDbLine
 10
99.42613248910979
 20
100.254677941076
 30
0.0
 11
144.5598217764119
 21
100.254677941076
 31
0.0
  0
LINE
  5
77
330
1F
100
AcDbEntity
  8
ISS138金台
  6
Continuous
 62
   250
420
  2367521
370
    13
100
AcDbLine
 10
145.4856911743991
 20
105.6786361929496
 30
0.0
 11
155.4957604685074
 21
105.6786361929496
 31
0.0
  0
LINE
  5
78
330
1F
100
AcDbEntity
  8
ISS138金台
  6
Continuous
 62
   250
420
  2367521
370
    13
100
AcDbLine
 10
145.4856911743991
 20
107.2440875583278
 30
0.0
 11
150.490898076225
 21
107.2440875583278
 31
0.0
  0
LINE
  5
79
330
1F
100
AcDbEntity
  8
ISS138金台
  6
Continuous
 62
   250
420
  2367521
370
    13
100
AcDbLine
 10
154.9886316546447
 20
105.6786361929496
 30
0.0
 11
154.9886316546447
 21
115.3140513585701
 31
0.0
  0
LINE
  5
7A
330
1F
100
AcDbEntity
  8
ISS138金台
  6
Continuous
 62
   250
420
  2367521
370
    13
100
AcDbLine
 10
149.9836077735138
 20
115.3140513585701
 30
0.0
 11
149.9836077735138
 21
107.2442598130995
 31
0.0
  0
LINE
  5
7B
330
1F
100
AcDbEntity
  8
ISS138金台
  6
Continuous
 62
   250
420
  2367521
370
    13
100
AcDbLine
 10
144.493492923377
 20
115.3140513585701
 30
0.0
 11
155.4959219573559
 21
115.3140513585701
 31
0.0
  0
HATCH
  5
7C
330
1F
100
AcDbEntity
  8
ISS138金台
  6
Continuous
 62
   250
420
  2367521
370
    13
100
AcDbHatch
 10
0.0
 20
0.0
 30
0.0
210
0.0
220
0.0
230
1.0
  2
SOLID
 70
     1
 71
     0
 91
        1
 92
        3
 72
     0
 73
     1
 93
       67
 10
119.5565248971495
 20
120.4880787026034
 10
119.5820616670567
 20
120.489359847468
 10
119.6068771201074
 20
120.4931494524458
 10
119.6308312992995
 20
120.4993075605348
 10
119.6537950135543
 20
120.5077157465793
 10
119.6756498377161
 20
120.5182232876541
 10
119.6962773466294
 20
120.5307332904502
 10
119.7155375832921
 20
120.5451165638887
 10
119.7333121225489
 20
120.5612331509676
 10
119.7494610073975
 20
120.5789646265314
 10
119.7638765786057
 20
120.5981925654244
 10
119.7764188791714
 20
120.6187985424913
 10
119.786958718016
 20
120.6406318348066
 10
119.7953884359069
 20
120.6635740172149
 10
119.8015573099191
 20
120.6875066645605
 10
119.8053576808201
 20
120.712311351688
 10
119.806649591608
 20
120.7378481215953
 10
119.806649591608
 20
120.7378481215953
 10
119.8053576808201
 20
120.7634602529652
 10
119.8015680758423
 20
120.7882972378623
 10
119.7953776699837
 20
120.8122837148241
 10
119.7869694839392
 20
120.8352581950021
 10
119.7764188791714
 20
120.8571345510103
 10
119.7638765786057
 20
120.8777512940004
 10
119.7494717733207
 20
120.8970115306632
 10
119.7333121225489
 20
120.9147645380734
 10
119.7155375832921
 20
120.9309026569988
 10
119.6962773466294
 20
120.9452859304373
 10
119.6756606036393
 20
120.9578066991566
 10
119.6537950135543
 20
120.9683250061547
 10
119.6308312992995
 20
120.9767331921992
 10
119.6068771201074
 20
120.9828913002881
 10
119.5820616670567
 20
120.9866701393427
 10
119.5565248971495
 20
120.9879620501306
 10
119.5565248971495
 20
120.9879620501306
 10
119.5309988931654
 20
120.9866701393427
 10
119.5061726741915
 20
120.9828913002881
 10
119.4822184949994
 20
120.9767331921992
 10
119.4592547807446
 20
120.9683250061547
 10
119.4373891906596
 20
120.9578066991566
 10
119.4167724476695
 20
120.9452859304373
 10
119.3975122110068
 20
120.9308918910756
 10
119.37973767175
 20
120.9147645380734
 10
119.3635780209782
 20
120.8970115306632
 10
119.3491732156933
 20
120.8777512940004
 10
119.3366309151275
 20
120.8571345510103
 10
119.326091076283
 20
120.8352689609253
 10
119.317661358392
 20
120.8122837148241
 10
119.3114924843798
 20
120.7882972378623
 10
119.3076921134788
 20
120.7634494870419
 10
119.3064002026909
 20
120.7378481215953
 10
119.3064002026909
 20
120.7378481215953
 10
119.3076813475555
 20
120.712311351688
 10
119.3114924843798
 20
120.6875174304838
 10
119.3176505924688
 20
120.6635740172149
 10
119.3260803103597
 20
120.6406318348066
 10
119.3366309151275
 20
120.6187985424913
 10
119.3491732156933
 20
120.5982033313477
 10
119.3635887869014
 20
120.5789753924546
 10
119.37973767175
 20
120.5612331509676
 10
119.3975014450835
 20
120.5451165638887
 10
119.4167724476695
 20
120.5307332904502
 10
119.4373891906596
 20
120.5182232876541
 10
119.4592547807446
 20
120.507704980656
 10
119.4822184949994
 20
120.4993075605348
 10
119.5061726741915
 20
120.4931494524458
 10
119.5309881272422
 20
120.4893706133913
 97
        0
 75
     1
 76
     1
 98
        0
  0
LWPOLYLINE
  5
7D
330
1F
100
AcDbEntity
  8
ISS138金台
  6
Continuous
 62
   250
420
  2367521
370
    13
100
AcDbPolyline
 90
       68
 70
     0
 43
0.0
 10
119.5565248971495
 20
120.4880787026034
 10
119.5820616670567
 20
120.489359847468
 10
119.6068771201074
 20
120.4931494524458
 10
119.6308312992995
 20
120.4993075605348
 10
119.6537950135543
 20
120.5077157465793
 10
119.6756498377161
 20
120.5182232876541
 10
119.6962773466294
 20
120.5307332904502
 10
119.7155375832921
 20
120.5451165638887
 10
119.7333121225489
 20
120.5612331509676
 10
119.7494610073975
 20
120.5789646265314
 10
119.7638765786057
 20
120.5981925654244
 10
119.7764188791714
 20
120.6187985424913
 10
119.786958718016
 20
120.6406318348066
 10
119.7953884359069
 20
120.6635740172149
 10
119.8015573099191
 20
120.6875066645605
 10
119.8053576808201
 20
120.712311351688
 10
119.806649591608
 20
120.7378481215953
 10
119.806649591608
 20
120.7378481215953
 10
119.8053576808201
 20
120.7634602529652
 10
119.8015680758423
 20
120.7882972378623
 10
119.7953776699837
 20
120.8122837148241
 10
119.7869694839392
 20
120.8352581950021
 10
119.7764188791714
 20
120.8571345510103
 10
119.7638765786057
 20
120.8777512940004
 10
119.7494717733207
 20
120.8970115306632
 10
119.7333121225489
 20
120.9147645380734
 10
119.7155375832921
 20
120.9309026569988
 10
119.6962773466294
 20
120.9452859304373
 10
119.6756606036393
 20
120.9578066991566
 10
119.6537950135543
 20
120.9683250061547
 10
119.6308312992995
 20
120.9767331921992
 10
119.6068771201074
 20
120.9828913002881
 10
119.5820616670567
 20
120.9866701393427
 10
119.5565248971495
 20
120.9879620501306
 10
119.5565248971495
 20
120.9879620501306
 10
119.5309988931654
 20
120.9866701393427
 10
119.5061726741915
 20
120.9828913002881
 10
119.4822184949994
 20
120.9767331921992
 10
119.4592547807446
 20
120.9683250061547
 10
119.4373891906596
 20
120.9578066991566
 10
119.4167724476695
 20
120.9452859304373
 10
119.3975122110068
 20
120.9308918910756
 10
119.37973767175
 20
120.9147645380734
 10
119.3635780209782
 20
120.8970115306632
 10
119.3491732156933
 20
120.8777512940004
 10
119.3366309151275
 20
120.8571345510103
 10
119.326091076283
 20
120.8352689609253
 10
119.317661358392
 20
120.8122837148241
 10
119.3114924843798
 20
120.7882972378623
 10
119.3076921134788
 20
120.7634494870419
 10
119.3064002026909
 20
120.7378481215953
 10
119.3064002026909
 20
120.7378481215953
 10
119.3076813475555
 20
120.712311351688
 10
119.3114924843798
 20
120.6875174304838
 10
119.3176505924688
 20
120.6635740172149
 10
119.3260803103597
 20
120.6406318348066
 10
119.3366309151275
 20
120.6187985424913
 10
119.3491732156933
 20
120.5982033313477
 10
119.3635887869014
 20
120.5789753924546
 10
119.37973767175
 20
120.5612331509676
 10
119.3975014450835
 20
120.5451165638887
 10
119.4167724476695
 20
120.5307332904502
 10
119.4373891906596
 20
120.5182232876541
 10
119.4592547807446
 20
120.507704980656
 10
119.4822184949994
 20
120.4993075605348
 10
119.5061726741915
 20
120.4931494524458
 10
119.5309881272422
 20
120.4893706133913
 10
119.5565248971495
 20
120.4880787026034
  0
HATCH
  5
7E
330
1F
100
AcDbEntity
  8
ISS138金台
  6
Continuous
 62
   250
420
  2367521
370
    13
100
AcDbHatch
 10
0.0
 20
0.0
 30
0.0
210
0.0
220
0.0
230
1.0
  2
SOLID
 70
     1
 71
     0
 91
        1
 92
        3
 72
     0
 73
     1
 93
       67
 10
99.42613248910979
 20
120.4880787026034
 10
99.45166925901705
 20
120.489359847468
 10
99.47648471206776
 20
120.4931494524458
 10
99.50042812533664
 20
120.4993075605348
 10
99.5234026055146
 20
120.5077157465793
 10
99.54526819559962
 20
120.5182232876541
 10
99.56589570451291
 20
120.5307332904502
 10
99.5851559411757
 20
120.5451165638887
 10
99.60291971450917
 20
120.5612331509676
 10
99.61906859935779
 20
120.5789646265314
 10
99.63348417056599
 20
120.5981925654244
 10
99.64602647113173
 20
120.6187985424913
 10
99.65657707589949
 20
120.6406318348066
 10
99.66499602786725
 20
120.6635740172149
 10
99.67116490187942
 20
120.6875066645605
 10
99.67496527278045
 20
120.712311351688
 10
99.67625718356834
 20
120.7378481215953
 10
99.67625718356834
 20
120.7378481215953
 10
99.67496527278045
 20
120.7634602529652
 10
99.67117566780266
 20
120.7882972378623
 10
99.66499602786725
 20
120.8122837148241
 10
99.65657707589949
 20
120.8352581950021
 10
99.64602647113173
 20
120.8571345510103
 10
99.63348417056599
 20
120.8777512940004
 10
99.61906859935779
 20
120.8970115306632
 10
99.60291971450917
 20
120.9147645380734
 10
99.58514517525246
 20
120.9309026569988
 10
99.56588493858968
 20
120.9452859304373
 10
99.54526819559962
 20
120.9578066991566
 10
99.5234026055146
 20
120.9683250061547
 10
99.50043889125988
 20
120.9767331921992
 10
99.47648471206776
 20
120.9828913002881
 10
99.45166925901705
 20
120.9866701393427
 10
99.42613248910979
 20
120.9879620501306
 10
99.42613248910979
 20
120.9879620501306
 10
99.40058495327926
 20
120.9866701393427
 10
99.37578026615179
 20
120.9828913002881
 10
99.35182608695969
 20
120.9767331921992
 10
99.32886237270496
 20
120.9683250061547
 10
99.30699678261993
 20
120.9578066991566
 10
99.28638003962988
 20
120.9452859304373
 10
99.2671198029671
 20
120.9308918910756
 10
99.24934526371038
 20
120.9147645380734
 10
99.23318561293854
 20
120.8970115306632
 10
99.21878080765359
 20
120.8777512940004
 10
99.20623850708782
 20
120.8571345510103
 10
99.1956986682433
 20
120.8352689609253
 10
99.18726895035232
 20
120.8122837148241
 10
99.18110007634014
 20
120.7882972378623
 10
99.17729970543911
 20
120.7634494870419
 10
99.17600779465121
 20
120.7378481215953
 10
99.17600779465121
 20
120.7378481215953
 10
99.17731047136235
 20
120.712311351688
 10
99.18111084226338
 20
120.6875174304838
 10
99.18726895035232
 20
120.6635740172149
 10
99.1956986682433
 20
120.6406318348066
 10
99.20623850708782
 20
120.6187985424913
 10
99.21878080765359
 20
120.5982033313477
 10
99.23318561293854
 20
120.5789753924546
 10
99.24934526371038
 20
120.5612331509676
 10
99.26710903704387
 20
120.5451165638887
 10
99.28638003962988
 20
120.5307332904502
 10
99.30700754854317
 20
120.5182232876541
 10
99.32886237270496
 20
120.507704980656
 10
99.35182608695969
 20
120.4993075605348
 10
99.37578026615179
 20
120.4931494524458
 10
99.4005957192025
 20
120.4893706133913
 97
        0
 75
     1
 76
     1
 98
        0
  0
LWPOLYLINE
  5
7F
330
1F
100
AcDbEntity
  8
ISS138金台
  6
Continuous
 62
   250
420
  2367521
370
    13
100
AcDbPolyline
 90
       68
 70
     0
 43
0.0
 10
99.42613248910979
 20
120.4880787026034
 10
99.45166925901705
 20
120.489359847468
 10
99.47648471206776
 20
120.4931494524458
 10
99.50042812533664
 20
120.4993075605348
 10
99.5234026055146
 20
120.5077157465793
 10
99.54526819559962
 20
120.5182232876541
 10
99.56589570451291
 20
120.5307332904502
 10
99.5851559411757
 20
120.5451165638887
 10
99.60291971450917
 20
120.5612331509676
 10
99.61906859935779
 20
120.5789646265314
 10
99.63348417056599
 20
120.5981925654244
 10
99.64602647113173
 20
120.6187985424913
 10
99.65657707589949
 20
120.6406318348066
 10
99.66499602786725
 20
120.6635740172149
 10
99.67116490187942
 20
120.6875066645605
 10
99.67496527278045
 20
120.712311351688
 10
99.67625718356834
 20
120.7378481215953
 10
99.67625718356834
 20
120.7378481215953
 10
99.67496527278045
 20
120.7634602529652
 10
99.67117566780266
 20
120.7882972378623
 10
99.66499602786725
 20
120.8122837148241
 10
99.65657707589949
 20
120.8352581950021
 10
99.64602647113173
 20
120.8571345510103
 10
99.63348417056599
 20
120.8777512940004
 10
99.61906859935779
 20
120.8970115306632
 10
99.60291971450917
 20
120.9147645380734
 10
99.58514517525246
 20
120.9309026569988
 10
99.56588493858968
 20
120.9452859304373
 10
99.54526819559962
 20
120.9578066991566
 10
99.5234026055146
 20
120.9683250061547
 10
99.50043889125988
 20
120.9767331921992
 10
99.47648471206776
 20
120.9828913002881
 10
99.45166925901705
 20
120.9866701393427
 10
99.42613248910979
 20
120.9879620501306
 10
99.42613248910979
 20
120.9879620501306
 10
99.40058495327926
 20
120.9866701393427
 10
99.37578026615179
 20
120.9828913002881
 10
99.35182608695969
 20
120.9767331921992
 10
99.32886237270496
 20
120.9683250061547
 10
99.30699678261993
 20
120.9578066991566
 10
99.28638003962988
 20
120.9452859304373
 10
99.2671198029671
 20
120.9308918910756
 10
99.24934526371038
 20
120.9147645380734
 10
99.23318561293854
 20
120.8970115306632
 10
99.21878080765359
 20
120.8777512940004
 10
99.20623850708782
 20
120.8571345510103
 10
99.1956986682433
 20
120.8352689609253
 10
99.18726895035232
 20
120.8122837148241
 10
99.18110007634014
 20
120.7882972378623
 10
99.17729970543911
 20
120.7634494870419
 10
99.17600779465121
 20
120.7378481215953
 10
99.17600779465121
 20
120.7378481215953
 10
99.17731047136235
 20
120.712311351688
 10
99.18111084226338
 20
120.6875174304838
 10
99.18726895035232
 20
120.6635740172149
 10
99.1956986682433
 20
120.6406318348066
 10
99.20623850708782
 20
120.6187985424913
 10
99.21878080765359
 20
120.5982033313477
 10
99.23318561293854
 20
120.5789753924546
 10
99.24934526371038
 20
120.5612331509676
 10
99.26710903704387
 20
120.5451165638887
 10
99.28638003962988
 20
120.5307332904502
 10
99.30700754854317
 20
120.5182232876541
 10
99.32886237270496
 20
120.507704980656
 10
99.35182608695969
 20
120.4993075605348
 10
99.37578026615179
 20
120.4931494524458
 10
99.4005957192025
 20
120.4893706133913
 10
99.42613248910979
 20
120.4880787026034
  0
HATCH
  5
80
330
1F
100
AcDbEntity
  8
ISS138金台
  6
Continuous
 62
   250
420
  2367521
370
    13
100
AcDbHatch
 10
0.0
 20
0.0
 30
0.0
210
0.0
220
0.0
230
1.0
  2
SOLID
 70
     1
 71
     0
 91
        1
 92
        3
 72
     0
 73
     1
 93
       67
 10
99.42613248910979
 20
100.0045532466174
 10
99.45166925901705
 20
100.0058343914821
 10
99.47648471206776
 20
100.0096455283064
 10
99.50042812533664
 20
100.0158144023185
 10
99.5234026055146
 20
100.0242333542863
 10
99.54526819559962
 20
100.0347731931308
 10
99.56589570451291
 20
100.0473154936966
 10
99.5851559411757
 20
100.0617310649048
 10
99.60291971450917
 20
100.0778907156766
 10
99.61906859935779
 20
100.0956544890101
 10
99.63348417056599
 20
100.1149147256729
 10
99.64602647113173
 20
100.1355422345862
 10
99.65657707589949
 20
100.1574078246712
 10
99.66499602786725
 20
100.1803715389259
 10
99.67116490187942
 20
100.204325718118
 10
99.67496527278045
 20
100.2291411711687
 10
99.67625718356834
 20
100.254677941076
 10
99.67625718356834
 20
100.254677941076
 10
99.67496527278045
 20
100.2802147109833
 10
99.67117566780266
 20
100.305030164034
 10
99.66499602786725
 20
100.3289843432261
 10
99.65657707589949
 20
100.3519372915576
 10
99.64602647113173
 20
100.3738028816426
 10
99.63348417056599
 20
100.3944303905559
 10
99.61906859935779
 20
100.4136906272187
 10
99.60291971450917
 20
100.4314544005522
 10
99.58514517525246
 20
100.447614051324
 10
99.56588493858968
 20
100.462018856609
 10
99.54526819559962
 20
100.474571923098
 10
99.5234026055146
 20
100.4851117619425
 10
99.50043889125988
 20
100.4935307139102
 10
99.47648471206776
 20
100.4996995879224
 10
99.45166925901705
 20
100.5034999588234
 10
99.42613248910979
 20
100.5047918696113
 10
99.42613248910979
 20
100.5047918696113
 10
99.40058495327926
 20
100.5034999588234
 10
99.37578026615179
 20
100.4996995879224
 10
99.35182608695969
 20
100.4935307139102
 10
99.32886237270496
 20
100.4851009960193
 10
99.30699678261993
 20
100.4745611571747
 10
99.28638003962988
 20
100.462018856609
 10
99.2671198029671
 20
100.447614051324
 10
99.24934526371038
 20
100.4314544005522
 10
99.23318561293854
 20
100.4136906272187
 10
99.21878080765359
 20
100.3944303905559
 10
99.20623850708782
 20
100.3738028816426
 10
99.1956986682433
 20
100.3519480574808
 10
99.18726895035232
 20
100.3289843432261
 10
99.18110007634014
 20
100.305030164034
 10
99.17729970543911
 20
100.2802147109833
 10
99.17600779465121
 20
100.254677941076
 10
99.17600779465121
 20
100.254677941076
 10
99.17731047136235
 20
100.2291411711687
 10
99.18111084226338
 20
100.2043364840412
 10
99.18726895035232
 20
100.1803715389259
 10
99.1956986682433
 20
100.1573970587479
 10
99.20623850708782
 20
100.1355314686629
 10
99.21878080765359
 20
100.1149147256729
 10
99.23318561293854
 20
100.0956544890101
 10
99.24934526371038
 20
100.0778907156766
 10
99.26710903704387
 20
100.0617310649048
 10
99.28638003962988
 20
100.0473154936966
 10
99.30700754854317
 20
100.034783959054
 10
99.32886237270496
 20
100.0242333542863
 10
99.35182608695969
 20
100.0158144023185
 10
99.37578026615179
 20
100.0096455283064
 10
99.4005957192025
 20
100.0058451574053
 97
        0
 75
     1
 76
     1
 98
        0
  0
LWPOLYLINE
  5
81
330
1F
100
AcDbEntity
  8
ISS138金台
  6
Continuous
 62
   250
420
  2367521
370
    13
100
AcDbPolyline
 90
       68
 70
     0
 43
0.0
 10
99.42613248910979
 20
100.0045532466174
 10
99.45166925901705
 20
100.0058343914821
 10
99.47648471206776
 20
100.0096455283064
 10
99.50042812533664
 20
100.0158144023185
 10
99.5234026055146
 20
100.0242333542863
 10
99.54526819559962
 20
100.0347731931308
 10
99.56589570451291
 20
100.0473154936966
 10
99.5851559411757
 20
100.0617310649048
 10
99.60291971450917
 20
100.0778907156766
 10
99.61906859935779
 20
100.0956544890101
 10
99.63348417056599
 20
100.1149147256729
 10
99.64602647113173
 20
100.1355422345862
 10
99.65657707589949
 20
100.1574078246712
 10
99.66499602786725
 20
100.1803715389259
 10
99.67116490187942
 20
100.204325718118
 10
99.67496527278045
 20
100.2291411711687
 10
99.67625718356834
 20
100.254677941076
 10
99.67625718356834
 20
100.254677941076
 10
99.67496527278045
 20
100.2802147109833
 10
99.67117566780266
 20
100.305030164034
 10
99.66499602786725
 20
100.3289843432261
 10
99.65657707589949
 20
100.3519372915576
 10
99.64602647113173
 20
100.3738028816426
 10
99.63348417056599
 20
100.3944303905559
 10
99.61906859935779
 20
100.4136906272187
 10
99.60291971450917
 20
100.4314544005522
 10
99.58514517525246
 20
100.447614051324
 10
99.56588493858968
 20
100.462018856609
 10
99.54526819559962
 20
100.474571923098
 10
99.5234026055146
 20
100.4851117619425
 10
99.50043889125988
 20
100.4935307139102
 10
99.47648471206776
 20
100.4996995879224
 10
99.45166925901705
 20
100.5034999588234
 10
99.42613248910979
 20
100.5047918696113
 10
99.42613248910979
 20
100.5047918696113
 10
99.40058495327926
 20
100.5034999588234
 10
99.37578026615179
 20
100.4996995879224
 10
99.35182608695969
 20
100.4935307139102
 10
99.32886237270496
 20
100.4851009960193
 10
99.30699678261993
 20
100.4745611571747
 10
99.28638003962988
 20
100.462018856609
 10
99.2671198029671
 20
100.447614051324
 10
99.24934526371038
 20
100.4314544005522
 10
99.23318561293854
 20
100.4136906272187
 10
99.21878080765359
 20
100.3944303905559
 10
99.20623850708782
 20
100.3738028816426
 10
99.1956986682433
 20
100.3519480574808
 10
99.18726895035232
 20
100.3289843432261
 10
99.18110007634014
 20
100.305030164034
 10
99.17729970543911
 20
100.2802147109833
 10
99.17600779465121
 20
100.254677941076
 10
99.17600779465121
 20
100.254677941076
 10
99.17731047136235
 20
100.2291411711687
 10
99.18111084226338
 20
100.2043364840412
 10
99.18726895035232
 20
100.1803715389259
 10
99.1956986682433
 20
100.1573970587479
 10
99.20623850708782
 20
100.1355314686629
 10
99.21878080765359
 20
100.1149147256729
 10
99.23318561293854
 20
100.0956544890101
 10
99.24934526371038
 20
100.0778907156766
 10
99.26710903704387
 20
100.0617310649048
 10
99.28638003962988
 20
100.0473154936966
 10
99.30700754854317
 20
100.034783959054
 10
99.32886237270496
 20
100.0242333542863
 10
99.35182608695969
 20
100.0158144023185
 10
99.37578026615179
 20
100.0096455283064
 10
99.4005957192025
 20
100.0058451574053
 10
99.42613248910979
 20
100.0045532466174
  0
HATCH
  5
82
330
1F
100
AcDbEntity
  8
ISS138金台
  6
Continuous
 62
   250
420
  2367521
370
    13
100
AcDbHatch
 10
0.0
 20
0.0
 30
0.0
210
0.0
220
0.0
230
1.0
  2
SOLID
 70
     1
 71
     0
 91
        1
 92
        3
 72
     0
 73
     1
 93
       67
 10
144.5596602875634
 20
100.0045532466174
 10
144.5851970574707
 20
100.0058343914821
 10
144.6100125105214
 20
100.0096455283064
 10
144.6339666897135
 20
100.0158144023185
 10
144.6569304039683
 20
100.0242333542863
 10
144.67878522813
 20
100.0347731931308
 10
144.6994235029666
 20
100.0473154936966
 10
144.7186729737061
 20
100.0617310649048
 10
144.7364475129628
 20
100.0778907156766
 10
144.7525963978114
 20
100.0956544890101
 10
144.7670012030964
 20
100.1149147256729
 10
144.7795542695854
 20
100.1355422345862
 10
144.7900941084299
 20
100.1574078246712
 10
144.7985238263209
 20
100.1803715389259
 10
144.8046927003331
 20
100.204325718118
 10
144.8084930712341
 20
100.2291411711687
 10
144.809784982022
 20
100.254677941076
 10
144.809784982022
 20
100.254677941076
 10
144.8084930712341
 20
100.2802147109833
 10
144.8047034662563
 20
100.305030164034
 10
144.7985130603977
 20
100.3289843432261
 10
144.7901048743531
 20
100.3519372915576
 10
144.7795542695854
 20
100.3738028816426
 10
144.7670119690196
 20
100.3944303905559
 10
144.7526071637347
 20
100.4136906272187
 10
144.7364475129628
 20
100.4314544005522
 10
144.7186729737061
 20
100.447614051324
 10
144.6994127370433
 20
100.462018856609
 10
144.6787959940532
 20
100.474571923098
 10
144.6569304039683
 20
100.4851117619425
 10
144.6339666897135
 20
100.4935307139102
 10
144.6100125105214
 20
100.4996995879224
 10
144.5851970574707
 20
100.5034999588234
 10
144.5596602875634
 20
100.5047918696113
 10
144.5596602875634
 20
100.5047918696113
 10
144.5341235176562
 20
100.5034999588234
 10
144.5093080646054
 20
100.4996995879224
 10
144.4853538854133
 20
100.4935307139102
 10
144.4623901711586
 20
100.4851009960193
 10
144.4405138151504
 20
100.4745611571747
 10
144.4199078380835
 20
100.462018856609
 10
144.4006368354975
 20
100.447614051324
 10
144.382873062164
 20
100.4314544005522
 10
144.3667134113922
 20
100.4136906272187
 10
144.3523086061072
 20
100.3944303905559
 10
144.3397663055414
 20
100.3738028816426
 10
144.3292157007737
 20
100.3519480574808
 10
144.3207967488059
 20
100.3289843432261
 10
144.3146278747938
 20
100.305030164034
 10
144.3108275038928
 20
100.2802147109833
 10
144.3095355931048
 20
100.254677941076
 10
144.3095355931048
 20
100.254677941076
 10
144.3108275038928
 20
100.2291411711687
 10
144.314638640717
 20
100.2043364840412
 10
144.3207859828827
 20
100.1803715389259
 10
144.3292157007737
 20
100.1573970587479
 10
144.3397555396182
 20
100.1355314686629
 10
144.3523086061072
 20
100.1149147256729
 10
144.3667241773154
 20
100.0956544890101
 10
144.382873062164
 20
100.0778907156766
 10
144.4006368354975
 20
100.0617310649048
 10
144.4198970721603
 20
100.0473154936966
 10
144.4405353469968
 20
100.034783959054
 10
144.4623901711586
 20
100.0242333542863
 10
144.4853538854133
 20
100.0158144023185
 10
144.5093080646054
 20
100.0096455283064
 10
144.5341235176562
 20
100.0058451574053
 97
        0
 75
     1
 76
     1
 98
        0
  0
LWPOLYLINE
  5
83
330
1F
100
AcDbEntity
  8
ISS138金台
  6
Continuous
 62
   250
420
  2367521
370
    13
100
AcDbPolyline
 90
       68
 70
     0
 43
0.0
 10
144.5596602875634
 20
100.0045532466174
 10
144.5851970574707
 20
100.0058343914821
 10
144.6100125105214
 20
100.0096455283064
 10
144.6339666897135
 20
100.0158144023185
 10
144.6569304039683
 20
100.0242333542863
 10
144.67878522813
 20
100.0347731931308
 10
144.6994235029666
 20
100.0473154936966
 10
144.7186729737061
 20
100.0617310649048
 10
144.7364475129628
 20
100.0778907156766
 10
144.7525963978114
 20
100.0956544890101
 10
144.7670012030964
 20
100.1149147256729
 10
144.7795542695854
 20
100.1355422345862
 10
144.7900941084299
 20
100.1574078246712
 10
144.7985238263209
 20
100.1803715389259
 10
144.8046927003331
 20
100.204325718118
 10
144.8084930712341
 20
100.2291411711687
 10
144.809784982022
 20
100.254677941076
 10
144.809784982022
 20
100.254677941076
 10
144.8084930712341
 20
100.2802147109833
 10
144.8047034662563
 20
100.305030164034
 10
144.7985130603977
 20
100.3289843432261
 10
144.7901048743531
 20
100.3519372915576
 10
144.7795542695854
 20
100.3738028816426
 10
144.7670119690196
 20
100.3944303905559
 10
144.7526071637347
 20
100.4136906272187
 10
144.7364475129628
 20
100.4314544005522
 10
144.7186729737061
 20
100.447614051324
 10
144.6994127370433
 20
100.462018856609
 10
144.6787959940532
 20
100.474571923098
 10
144.6569304039683
 20
100.4851117619425
 10
144.6339666897135
 20
100.4935307139102
 10
144.6100125105214
 20
100.4996995879224
 10
144.5851970574707
 20
100.5034999588234
 10
144.5596602875634
 20
100.5047918696113
 10
144.5596602875634
 20
100.5047918696113
 10
144.5341235176562
 20
100.5034999588234
 10
144.5093080646054
 20
100.4996995879224
 10
144.4853538854133
 20
100.4935307139102
 10
144.4623901711586
 20
100.4851009960193
 10
144.4405138151504
 20
100.4745611571747
 10
144.4199078380835
 20
100.462018856609
 10
144.4006368354975
 20
100.447614051324
 10
144.382873062164
 20
100.4314544005522
 10
144.3667134113922
 20
100.4136906272187
 10
144.3523086061072
 20
100.3944303905559
 10
144.3397663055414
 20
100.3738028816426
 10
144.3292157007737
 20
100.3519480574808
 10
144.3207967488059
 20
100.3289843432261
 10
144.3146278747938
 20
100.305030164034
 10
144.3108275038928
 20
100.2802147109833
 10
144.3095355931048
 20
100.254677941076
 10
144.3095355931048
 20
100.254677941076
 10
144.3108275038928
 20
100.2291411711687
 10
144.314638640717
 20
100.2043364840412
 10
144.3207859828827
 20
100.1803715389259
 10
144.3292157007737
 20
100.1573970587479
 10
144.3397555396182
 20
100.1355314686629
 10
144.3523086061072
 20
100.1149147256729
 10
144.3667241773154
 20
100.0956544890101
 10
144.382873062164
 20
100.0778907156766
 10
144.4006368354975
 20
100.0617310649048
 10
144.4198970721603
 20
100.0473154936966
 10
144.4405353469968
 20
100.034783959054
 10
144.4623901711586
 20
100.0242333542863
 10
144.4853538854133
 20
100.0158144023185
 10
144.5093080646054
 20
100.0096455283064
 10
144.5341235176562
 20
100.0058451574053
 10
144.5596602875634
 20
100.0045532466174
  0
HATCH
  5
84
330
1F
100
AcDbEntity
  8
ISS138金台
  6
Continuous
 62
   250
420
  2367521
370
    13
100
AcDbHatch
 10
0.0
 20
0.0
 30
0.0
210
0.0
220
0.0
230
1.0
  2
SOLID
 70
     1
 71
     0
 91
        1
 92
        3
 72
     0
 73
     1
 93
       67
 10
149.9836077735138
 20
106.9939736297925
 10
150.0091445434211
 20
106.9952655405804
 10
150.0339492305486
 20
106.9990659114814
 10
150.0579141756639
 20
107.0052347854936
 10
150.0808778899187
 20
107.0136645033846
 10
150.1027327140804
 20
107.0242043422291
 10
150.1233602229938
 20
107.0367358768716
 10
150.1426204596565
 20
107.0511514480798
 10
150.1603949989132
 20
107.0673110988516
 10
150.1765438837618
 20
107.0850748721851
 10
150.19095945497
 20
107.1043351088479
 10
150.2035017555358
 20
107.1249626177612
 10
150.2140415943803
 20
107.146817441923
 10
150.2224713122713
 20
107.169791922101
 10
150.2286401862835
 20
107.1937461012931
 10
150.2324405571845
 20
107.2185615543438
 10
150.2337324679724
 20
107.2440983242511
 10
150.2337324679724
 20
107.2440983242511
 10
150.2324405571845
 20
107.2696458600816
 10
150.2286509522067
 20
107.294450547209
 10
150.2224605463481
 20
107.3184047264011
 10
150.2140523603036
 20
107.3413576747326
 10
150.2035017555358
 20
107.3632232648176
 10
150.1909702208933
 20
107.383850773731
 10
150.1765546496851
 20
107.4031110103937
 10
150.1603949989132
 20
107.4208747837272
 10
150.1426204596565
 20
107.4370344344991
 10
150.1233602229938
 20
107.4514500057073
 10
150.1027327140804
 20
107.4639815403498
 10
150.0808886558419
 20
107.4745321451175
 10
150.0579141756639
 20
107.4829510970853
 10
150.0339599964718
 20
107.4891199710975
 10
150.0091445434211
 20
107.4929203419985
 10
149.9836077735138
 20
107.4942122527864
 10
149.9836077735138
 20
107.4942122527864
 10
149.9580817695298
 20
107.4929095760753
 10
149.9332447846326
 20
107.4891199710975
 10
149.9093013713638
 20
107.4829510970853
 10
149.886337657109
 20
107.4745321451175
 10
149.864472067024
 20
107.4639815403498
 10
149.8438445581107
 20
107.451439239784
 10
149.8245950873712
 20
107.4370236685758
 10
149.8068205481144
 20
107.4208747837272
 10
149.7906608973426
 20
107.4031110103937
 10
149.7762560920576
 20
107.383850773731
 10
149.7637137914919
 20
107.3632340307409
 10
149.7531739526474
 20
107.3413684406559
 10
149.7447442347564
 20
107.3183939604779
 10
149.7385753607442
 20
107.294450547209
 10
149.7347749898432
 20
107.2696350941583
 10
149.7334830790553
 20
107.2440983242511
 10
149.7334830790553
 20
107.2440983242511
 10
149.7347642239199
 20
107.2185507884205
 10
149.7385753607442
 20
107.1937568672163
 10
149.7447334688331
 20
107.169791922101
 10
149.7531631867241
 20
107.146817441923
 10
149.7637137914919
 20
107.1249626177612
 10
149.7762560920576
 20
107.1043351088479
 10
149.7906608973426
 20
107.0850748721851
 10
149.8068205481144
 20
107.0673110988516
 10
149.8245843214479
 20
107.0511514480798
 10
149.8438445581107
 20
107.0367466427949
 10
149.864472067024
 20
107.0242043422291
 10
149.8863268911858
 20
107.0136537374613
 10
149.9093013713638
 20
107.0052347854936
 10
149.9332555505559
 20
106.9990659114814
 10
149.9580710036066
 20
106.9952655405804
 97
        0
 75
     1
 76
     1
 98
        0
  0
LWPOLYLINE
  5
85
330
1F
100
AcDbEntity
  8
ISS138金台
  6
Continuous
 62
   250
420
  2367521
370
    13
100
AcDbPolyline
 90
       68
 70
     0
 43
0.0
 10
149.9836077735138
 20
106.9939736297925
 10
150.0091445434211
 20
106.9952655405804
 10
150.0339492305486
 20
106.9990659114814
 10
150.0579141756639
 20
107.0052347854936
 10
150.0808778899187
 20
107.0136645033846
 10
150.1027327140804
 20
107.0242043422291
 10
150.1233602229938
 20
107.0367358768716
 10
150.1426204596565
 20
107.0511514480798
 10
150.1603949989132
 20
107.0673110988516
 10
150.1765438837618
 20
107.0850748721851
 10
150.19095945497
 20
107.1043351088479
 10
150.2035017555358
 20
107.1249626177612
 10
150.2140415943803
 20
107.146817441923
 10
150.2224713122713
 20
107.169791922101
 10
150.2286401862835
 20
107.1937461012931
 10
150.2324405571845
 20
107.2185615543438
 10
150.2337324679724
 20
107.2440983242511
 10
150.2337324679724
 20
107.2440983242511
 10
150.2324405571845
 20
107.2696458600816
 10
150.2286509522067
 20
107.294450547209
 10
150.2224605463481
 20
107.3184047264011
 10
150.2140523603036
 20
107.3413576747326
 10
150.2035017555358
 20
107.3632232648176
 10
150.1909702208933
 20
107.383850773731
 10
150.1765546496851
 20
107.4031110103937
 10
150.1603949989132
 20
107.4208747837272
 10
150.1426204596565
 20
107.4370344344991
 10
150.1233602229938
 20
107.4514500057073
 10
150.1027327140804
 20
107.4639815403498
 10
150.0808886558419
 20
107.4745321451175
 10
150.0579141756639
 20
107.4829510970853
 10
150.0339599964718
 20
107.4891199710975
 10
150.0091445434211
 20
107.4929203419985
 10
149.9836077735138
 20
107.4942122527864
 10
149.9836077735138
 20
107.4942122527864
 10
149.9580817695298
 20
107.4929095760753
 10
149.9332447846326
 20
107.4891199710975
 10
149.9093013713638
 20
107.4829510970853
 10
149.886337657109
 20
107.4745321451175
 10
149.864472067024
 20
107.4639815403498
 10
149.8438445581107
 20
107.451439239784
 10
149.8245950873712
 20
107.4370236685758
 10
149.8068205481144
 20
107.4208747837272
 10
149.7906608973426
 20
107.4031110103937
 10
149.7762560920576
 20
107.383850773731
 10
149.7637137914919
 20
107.3632340307409
 10
149.7531739526474
 20
107.3413684406559
 10
149.7447442347564
 20
107.3183939604779
 10
149.7385753607442
 20
107.294450547209
 10
149.7347749898432
 20
107.2696350941583
 10
149.7334830790553
 20
107.2440983242511
 10
149.7334830790553
 20
107.2440983242511
 10
149.7347642239199
 20
107.2185507884205
 10
149.7385753607442
 20
107.1937568672163
 10
149.7447334688331
 20
107.169791922101
 10
149.7531631867241
 20
107.146817441923
 10
149.7637137914919
 20
107.1249626177612
 10
149.7762560920576
 20
107.1043351088479
 10
149.7906608973426
 20
107.0850748721851
 10
149.8068205481144
 20
107.0673110988516
 10
149.8245843214479
 20
107.0511514480798
 10
149.8438445581107
 20
107.0367466427949
 10
149.864472067024
 20
107.0242043422291
 10
149.8863268911858
 20
107.0136537374613
 10
149.9093013713638
 20
107.0052347854936
 10
149.9332555505559
 20
106.9990659114814
 10
149.9580710036066
 20
106.9952655405804
 10
149.9836077735138
 20
106.9939736297925
  0
HATCH
  5
86
330
1F
100
AcDbEntity
  8
ISS138金台
  6
Continuous
 62
   250
420
  2367521
370
    13
100
AcDbHatch
 10
0.0
 20
0.0
 30
0.0
210
0.0
220
0.0
230
1.0
  2
SOLID
 70
     1
 71
     0
 91
        1
 92
        3
 72
     0
 73
     1
 93
       67
 10
154.9886316546447
 20
105.4285114984911
 10
155.014168424552
 20
105.4297926433558
 10
155.0389838776027
 20
105.43360378018
 10
155.0629380567948
 20
105.4397726541922
 10
155.0859017710496
 20
105.4481916061599
 10
155.1077565952114
 20
105.4587314450045
 10
155.1283841041247
 20
105.4712737455702
 10
155.1476551067107
 20
105.4856893167784
 10
155.1654188800441
 20
105.5018489675503
 10
155.1815677648927
 20
105.5196127408837
 10
155.1959833361009
 20
105.5388729775465
 10
155.2085256366667
 20
105.5595004864598
 10
155.2190762414345
 20
105.5813660765448
 10
155.2274951934022
 20
105.6043297907996
 10
155.2336640674144
 20
105.6282839699917
 10
155.2374644383154
 20
105.6530994230424
 10
155.2387563491033
 20
105.6786361929496
 10
155.2387563491033
 20
105.6786361929496
 10
155.2374644383154
 20
105.7041729628569
 10
155.2336748333376
 20
105.7289884159076
 10
155.2274951934022
 20
105.7529425950997
 10
155.2190762414345
 20
105.7758955434312
 10
155.2085256366667
 20
105.7977611335163
 10
155.1959833361009
 20
105.8183886424296
 10
155.1815677648927
 20
105.8376488790923
 10
155.1654188800441
 20
105.855423418349
 10
155.1476443407875
 20
105.8715723031977
 10
155.1283841041247
 20
105.8859771084826
 10
155.1077673611346
 20
105.8985301749716
 10
155.0859017710496
 20
105.9090700138161
 10
155.0629380567948
 20
105.9174889657839
 10
155.0389838776027
 20
105.9236578397961
 10
155.014168424552
 20
105.9274582106971
 10
154.9886316546447
 20
105.928750121485
 10
154.9886316546447
 20
105.928750121485
 10
154.9630841188143
 20
105.9274582106971
 10
154.9382794316868
 20
105.9236578397961
 10
154.9143360184179
 20
105.9174889657839
 10
154.8913615382399
 20
105.9090592478929
 10
154.8694959481549
 20
105.8985194090484
 10
154.8488792051648
 20
105.8859771084826
 10
154.8296189685021
 20
105.8715723031977
 10
154.8118444292454
 20
105.855423418349
 10
154.7956847784735
 20
105.8376488790923
 10
154.7812799731885
 20
105.8183886424296
 10
154.7687376726228
 20
105.7977611335163
 10
154.7581978337783
 20
105.7759063093545
 10
154.7497681158873
 20
105.7529425950997
 10
154.7435992418751
 20
105.7289884159076
 10
154.7397988709741
 20
105.7041729628569
 10
154.7385069601862
 20
105.6786361929496
 10
154.7385069601862
 20
105.6786361929496
 10
154.7398096368973
 20
105.6530994230424
 10
154.7435992418751
 20
105.6282947359149
 10
154.7497681158873
 20
105.6043297907996
 10
154.758187067855
 20
105.5813553106216
 10
154.7687376726228
 20
105.5594897205366
 10
154.7812799731885
 20
105.5388729775465
 10
154.7956955443968
 20
105.5196127408837
 10
154.8118444292454
 20
105.5018489675503
 10
154.8296082025788
 20
105.4856893167784
 10
154.8488792051648
 20
105.4712737455702
 10
154.8695067140781
 20
105.4587422109277
 10
154.8913615382399
 20
105.4481916061599
 10
154.9143252524947
 20
105.4397726541922
 10
154.9382794316868
 20
105.43360378018
 10
154.9630948847375
 20
105.429803409279
 97
        0
 75
     1
 76
     1
 98
        0
  0
LWPOLYLINE
  5
87
330
1F
100
AcDbEntity
  8
ISS138金台
  6
Continuous
 62
   250
420
  2367521
370
    13
100
AcDbPolyline
 90
       68
 70
     0
 43
0.0
 10
154.9886316546447
 20
105.4285114984911
 10
155.014168424552
 20
105.4297926433558
 10
155.0389838776027
 20
105.43360378018
 10
155.0629380567948
 20
105.4397726541922
 10
155.0859017710496
 20
105.4481916061599
 10
155.1077565952114
 20
105.4587314450045
 10
155.1283841041247
 20
105.4712737455702
 10
155.1476551067107
 20
105.4856893167784
 10
155.1654188800441
 20
105.5018489675503
 10
155.1815677648927
 20
105.5196127408837
 10
155.1959833361009
 20
105.5388729775465
 10
155.2085256366667
 20
105.5595004864598
 10
155.2190762414345
 20
105.5813660765448
 10
155.2274951934022
 20
105.6043297907996
 10
155.2336640674144
 20
105.6282839699917
 10
155.2374644383154
 20
105.6530994230424
 10
155.2387563491033
 20
105.6786361929496
 10
155.2387563491033
 20
105.6786361929496
 10
155.2374644383154
 20
105.7041729628569
 10
155.2336748333376
 20
105.7289884159076
 10
155.2274951934022
 20
105.7529425950997
 10
155.2190762414345
 20
105.7758955434312
 10
155.2085256366667
 20
105.7977611335163
 10
155.1959833361009
 20
105.8183886424296
 10
155.1815677648927
 20
105.8376488790923
 10
155.1654188800441
 20
105.855423418349
 10
155.1476443407875
 20
105.8715723031977
 10
155.1283841041247
 20
105.8859771084826
 10
155.1077673611346
 20
105.8985301749716
 10
155.0859017710496
 20
105.9090700138161
 10
155.0629380567948
 20
105.9174889657839
 10
155.0389838776027
 20
105.9236578397961
 10
155.014168424552
 20
105.9274582106971
 10
154.9886316546447
 20
105.928750121485
 10
154.9886316546447
 20
105.928750121485
 10
154.9630841188143
 20
105.9274582106971
 10
154.9382794316868
 20
105.9236578397961
 10
154.9143360184179
 20
105.9174889657839
 10
154.8913615382399
 20
105.9090592478929
 10
154.8694959481549
 20
105.8985194090484
 10
154.8488792051648
 20
105.8859771084826
 10
154.8296189685021
 20
105.8715723031977
 10
154.8118444292454
 20
105.855423418349
 10
154.7956847784735
 20
105.8376488790923
 10
154.7812799731885
 20
105.8183886424296
 10
154.7687376726228
 20
105.7977611335163
 10
154.7581978337783
 20
105.7759063093545
 10
154.7497681158873
 20
105.7529425950997
 10
154.7435992418751
 20
105.7289884159076
 10
154.7397988709741
 20
105.7041729628569
 10
154.7385069601862
 20
105.6786361929496
 10
154.7385069601862
 20
105.6786361929496
 10
154.7398096368973
 20
105.6530994230424
 10
154.7435992418751
 20
105.6282947359149
 10
154.7497681158873
 20
105.6043297907996
 10
154.758187067855
 20
105.5813553106216
 10
154.7687376726228
 20
105.5594897205366
 10
154.7812799731885
 20
105.5388729775465
 10
154.7956955443968
 20
105.5196127408837
 10
154.8118444292454
 20
105.5018489675503
 10
154.8296082025788
 20
105.4856893167784
 10
154.8488792051648
 20
105.4712737455702
 10
154.8695067140781
 20
105.4587422109277
 10
154.8913615382399
 20
105.4481916061599
 10
154.9143252524947
 20
105.4397726541922
 10
154.9382794316868
 20
105.43360378018
 10
154.9630948847375
 20
105.429803409279
 10
154.9886316546447
 20
105.4285114984911
  0
HATCH
  5
88
330
1F
100
AcDbEntity
  8
ISS138金台
  6
Continuous
 62
   250
420
  2367521
370
    13
100
AcDbHatch
 10
0.0
 20
0.0
 30
0.0
210
0.0
220
0.0
230
1.0
  2
SOLID
 70
     1
 71
     0
 91
        1
 92
        3
 72
     0
 73
     1
 93
       67
 10
149.9836077735138
 20
115.0641204507297
 10
150.0091445434211
 20
115.0654015955944
 10
150.0339492305486
 20
115.0691912005722
 10
150.0579141756639
 20
115.0753493086611
 10
150.0808778899187
 20
115.0837574947056
 10
150.1027327140804
 20
115.0942650357805
 10
150.1233602229938
 20
115.1067750385765
 10
150.1426204596565
 20
115.121158312015
 10
150.1603949989132
 20
115.1372748990939
 10
150.1765438837618
 20
115.1550063746577
 10
150.19095945497
 20
115.174245079474
 10
150.2035017555358
 20
115.1948402906176
 10
150.2140415943803
 20
115.216673582933
 10
150.2224713122713
 20
115.2396157653412
 10
150.2286401862835
 20
115.2635484126869
 10
150.2324405571845
 20
115.2883530998143
 10
150.2337324679724
 20
115.3138898697216
 10
150.2337324679724
 20
115.3138898697216
 10
150.2324405571845
 20
115.3395020010915
 10
150.2286509522067
 20
115.3643389859887
 10
150.2224605463481
 20
115.3883254629505
 10
150.2140523603036
 20
115.4112999431284
 10
150.2035017555358
 20
115.4331762991367
 10
150.1909702208933
 20
115.4537930421268
 10
150.1765546496851
 20
115.4730532787895
 10
150.1603949989132
 20
115.4908062861998
 10
150.1426204596565
 20
115.5069444051252
 10
150.1233602229938
 20
115.5213276785637
 10
150.1027327140804
 20
115.5338484472829
 10
150.0808886558419
 20
115.544366754281
 10
150.0579141756639
 20
115.5527749403255
 10
150.0339599964718
 20
115.5589330484145
 10
150.0091445434211
 20
115.562711887469
 10
149.9836077735138
 20
115.5640037982569
 10
149.9836077735138
 20
115.5640037982569
 10
149.9580817695298
 20
115.562711887469
 10
149.9332447846326
 20
115.5589330484145
 10
149.9093013713638
 20
115.5527749403255
 10
149.886337657109
 20
115.544366754281
 10
149.864472067024
 20
115.5338484472829
 10
149.8438445581107
 20
115.5213276785637
 10
149.8245950873712
 20
115.5069336392019
 10
149.8068205481144
 20
115.4908062861998
 10
149.7906608973426
 20
115.4730532787895
 10
149.7762560920576
 20
115.4537930421268
 10
149.7637137914919
 20
115.4331762991367
 10
149.7531739526474
 20
115.4113107090517
 10
149.7447442347564
 20
115.3883254629505
 10
149.7385753607442
 20
115.3643389859887
 10
149.7347749898432
 20
115.3394912351683
 10
149.7334830790553
 20
115.3138898697216
 10
149.7334830790553
 20
115.3138898697216
 10
149.7347642239199
 20
115.2883530998143
 10
149.7385753607442
 20
115.2635591786101
 10
149.7447334688331
 20
115.2396157653412
 10
149.7531631867241
 20
115.216673582933
 10
149.7637137914919
 20
115.1948295246944
 10
149.7762560920576
 20
115.174245079474
 10
149.7906608973426
 20
115.1550171405809
 10
149.8068205481144
 20
115.1372748990939
 10
149.8245843214479
 20
115.121158312015
 10
149.8438445581107
 20
115.1067750385765
 10
149.864472067024
 20
115.0942650357805
 10
149.8863268911858
 20
115.0837467287824
 10
149.9093013713638
 20
115.0753493086611
 10
149.9332555505559
 20
115.0691912005722
 10
149.9580710036066
 20
115.0654123615176
 97
        0
 75
     1
 76
     1
 98
        0
  0
LWPOLYLINE
  5
89
330
1F
100
AcDbEntity
  8
ISS138金台
  6
Continuous
 62
   250
420
  2367521
370
    13
100
AcDbPolyline
 90
       68
 70
     0
 43
0.0
 10
149.9836077735138
 20
115.0641204507297
 10
150.0091445434211
 20
115.0654015955944
 10
150.0339492305486
 20
115.0691912005722
 10
150.0579141756639
 20
115.0753493086611
 10
150.0808778899187
 20
115.0837574947056
 10
150.1027327140804
 20
115.0942650357805
 10
150.1233602229938
 20
115.1067750385765
 10
150.1426204596565
 20
115.121158312015
 10
150.1603949989132
 20
115.1372748990939
 10
150.1765438837618
 20
115.1550063746577
 10
150.19095945497
 20
115.174245079474
 10
150.2035017555358
 20
115.1948402906176
 10
150.2140415943803
 20
115.216673582933
 10
150.2224713122713
 20
115.2396157653412
 10
150.2286401862835
 20
115.2635484126869
 10
150.2324405571845
 20
115.2883530998143
 10
150.2337324679724
 20
115.3138898697216
 10
150.2337324679724
 20
115.3138898697216
 10
150.2324405571845
 20
115.3395020010915
 10
150.2286509522067
 20
115.3643389859887
 10
150.2224605463481
 20
115.3883254629505
 10
150.2140523603036
 20
115.4112999431284
 10
150.2035017555358
 20
115.4331762991367
 10
150.1909702208933
 20
115.4537930421268
 10
150.1765546496851
 20
115.4730532787895
 10
150.1603949989132
 20
115.4908062861998
 10
150.1426204596565
 20
115.5069444051252
 10
150.1233602229938
 20
115.5213276785637
 10
150.1027327140804
 20
115.5338484472829
 10
150.0808886558419
 20
115.544366754281
 10
150.0579141756639
 20
115.5527749403255
 10
150.0339599964718
 20
115.5589330484145
 10
150.0091445434211
 20
115.562711887469
 10
149.9836077735138
 20
115.5640037982569
 10
149.9836077735138
 20
115.5640037982569
 10
149.9580817695298
 20
115.562711887469
 10
149.9332447846326
 20
115.5589330484145
 10
149.9093013713638
 20
115.5527749403255
 10
149.886337657109
 20
115.544366754281
 10
149.864472067024
 20
115.5338484472829
 10
149.8438445581107
 20
115.5213276785637
 10
149.8245950873712
 20
115.5069336392019
 10
149.8068205481144
 20
115.4908062861998
 10
149.7906608973426
 20
115.4730532787895
 10
149.7762560920576
 20
115.4537930421268
 10
149.7637137914919
 20
115.4331762991367
 10
149.7531739526474
 20
115.4113107090517
 10
149.7447442347564
 20
115.3883254629505
 10
149.7385753607442
 20
115.3643389859887
 10
149.7347749898432
 20
115.3394912351683
 10
149.7334830790553
 20
115.3138898697216
 10
149.7334830790553
 20
115.3138898697216
 10
149.7347642239199
 20
115.2883530998143
 10
149.7385753607442
 20
115.2635591786101
 10
149.7447334688331
 20
115.2396157653412
 10
149.7531631867241
 20
115.216673582933
 10
149.7637137914919
 20
115.1948295246944
 10
149.7762560920576
 20
115.174245079474
 10
149.7906608973426
 20
115.1550171405809
 10
149.8068205481144
 20
115.1372748990939
 10
149.8245843214479
 20
115.121158312015
 10
149.8438445581107
 20
115.1067750385765
 10
149.864472067024
 20
115.0942650357805
 10
149.8863268911858
 20
115.0837467287824
 10
149.9093013713638
 20
115.0753493086611
 10
149.9332555505559
 20
115.0691912005722
 10
149.9580710036066
 20
115.0654123615176
 10
149.9836077735138
 20
115.0641204507297
  0
HATCH
  5
8A
330
1F
100
AcDbEntity
  8
ISS138金台
  6
Continuous
 62
   250
420
  2367521
370
    13
100
AcDbHatch
 10
0.0
 20
0.0
 30
0.0
210
0.0
220
0.0
230
1.0
  2
SOLID
 70
     1
 71
     0
 91
        1
 92
        3
 72
     0
 73
     1
 93
       67
 10
154.9886316546447
 20
115.0641204507297
 10
155.014168424552
 20
115.0654015955944
 10
155.0389838776027
 20
115.0691912005722
 10
155.0629380567948
 20
115.0753493086611
 10
155.0859017710496
 20
115.0837574947056
 10
155.1077565952114
 20
115.0942650357805
 10
155.1283841041247
 20
115.1067750385765
 10
155.1476551067107
 20
115.121158312015
 10
155.1654188800441
 20
115.1372748990939
 10
155.1815677648927
 20
115.1550063746577
 10
155.1959833361009
 20
115.174245079474
 10
155.2085256366667
 20
115.1948402906176
 10
155.2190762414345
 20
115.216673582933
 10
155.2274951934022
 20
115.2396157653412
 10
155.2336640674144
 20
115.2635484126869
 10
155.2374644383154
 20
115.2883530998143
 10
155.2387563491033
 20
115.3138898697216
 10
155.2387563491033
 20
115.3138898697216
 10
155.2374644383154
 20
115.3395020010915
 10
155.2336748333376
 20
115.3643389859887
 10
155.2274951934022
 20
115.3883254629505
 10
155.2190762414345
 20
115.4112999431284
 10
155.2085256366667
 20
115.4331762991367
 10
155.1959833361009
 20
115.4537930421268
 10
155.1815677648927
 20
115.4730532787895
 10
155.1654188800441
 20
115.4908062861998
 10
155.1476443407875
 20
115.5069444051252
 10
155.1283841041247
 20
115.5213276785637
 10
155.1077673611346
 20
115.5338484472829
 10
155.0859017710496
 20
115.544366754281
 10
155.0629380567948
 20
115.5527749403255
 10
155.0389838776027
 20
115.5589330484145
 10
155.014168424552
 20
115.562711887469
 10
154.9886316546447
 20
115.5640037982569
 10
154.9886316546447
 20
115.5640037982569
 10
154.9630841188143
 20
115.562711887469
 10
154.9382794316868
 20
115.5589330484145
 10
154.9143360184179
 20
115.5527749403255
 10
154.8913615382399
 20
115.544366754281
 10
154.8694959481549
 20
115.5338484472829
 10
154.8488792051648
 20
115.5213276785637
 10
154.8296189685021
 20
115.5069336392019
 10
154.8118444292454
 20
115.4908062861998
 10
154.7956847784735
 20
115.4730532787895
 10
154.7812799731885
 20
115.4537930421268
 10
154.7687376726228
 20
115.4331762991367
 10
154.7581978337783
 20
115.4113107090517
 10
154.7497681158873
 20
115.3883254629505
 10
154.7435992418751
 20
115.3643389859887
 10
154.7397988709741
 20
115.3394912351683
 10
154.7385069601862
 20
115.3138898697216
 10
154.7385069601862
 20
115.3138898697216
 10
154.7398096368973
 20
115.2883530998143
 10
154.7435992418751
 20
115.2635591786101
 10
154.7497681158873
 20
115.2396157653412
 10
154.758187067855
 20
115.216673582933
 10
154.7687376726228
 20
115.1948295246944
 10
154.7812799731885
 20
115.174245079474
 10
154.7956955443968
 20
115.1550171405809
 10
154.8118444292454
 20
115.1372748990939
 10
154.8296082025788
 20
115.121158312015
 10
154.8488792051648
 20
115.1067750385765
 10
154.8695067140781
 20
115.0942650357805
 10
154.8913615382399
 20
115.0837467287824
 10
154.9143252524947
 20
115.0753493086611
 10
154.9382794316868
 20
115.0691912005722
 10
154.9630948847375
 20
115.0654123615176
 97
        0
 75
     1
 76
     1
 98
        0
  0
LWPOLYLINE
  5
8B
330
1F
100
AcDbEntity
  8
ISS138金台
  6
Continuous
 62
   250
420
  2367521
370
    13
100
AcDbPolyline
 90
       68
 70
     0
 43
0.0
 10
154.9886316546447
 20
115.0641204507297
 10
155.014168424552
 20
115.0654015955944
 10
155.0389838776027
 20
115.0691912005722
 10
155.0629380567948
 20
115.0753493086611
 10
155.0859017710496
 20
115.0837574947056
 10
155.1077565952114
 20
115.0942650357805
 10
155.1283841041247
 20
115.1067750385765
 10
155.1476551067107
 20
115.121158312015
 10
155.1654188800441
 20
115.1372748990939
 10
155.1815677648927
 20
115.1550063746577
 10
155.1959833361009
 20
115.174245079474
 10
155.2085256366667
 20
115.1948402906176
 10
155.2190762414345
 20
115.216673582933
 10
155.2274951934022
 20
115.2396157653412
 10
155.2336640674144
 20
115.2635484126869
 10
155.2374644383154
 20
115.2883530998143
 10
155.2387563491033
 20
115.3138898697216
 10
155.2387563491033
 20
115.3138898697216
 10
155.2374644383154
 20
115.3395020010915
 10
155.2336748333376
 20
115.3643389859887
 10
155.2274951934022
 20
115.3883254629505
 10
155.2190762414345
 20
115.4112999431284
 10
155.2085256366667
 20
115.4331762991367
 10
155.1959833361009
 20
115.4537930421268
 10
155.1815677648927
 20
115.4730532787895
 10
155.1654188800441
 20
115.4908062861998
 10
155.1476443407875
 20
115.5069444051252
 10
155.1283841041247
 20
115.5213276785637
 10
155.1077673611346
 20
115.5338484472829
 10
155.0859017710496
 20
115.544366754281
 10
155.0629380567948
 20
115.5527749403255
 10
155.0389838776027
 20
115.5589330484145
 10
155.014168424552
 20
115.562711887469
 10
154.9886316546447
 20
115.5640037982569
 10
154.9886316546447
 20
115.5640037982569
 10
154.9630841188143
 20
115.562711887469
 10
154.9382794316868
 20
115.5589330484145
 10
154.9143360184179
 20
115.5527749403255
 10
154.8913615382399
 20
115.544366754281
 10
154.8694959481549
 20
115.5338484472829
 10
154.8488792051648
 20
115.5213276785637
 10
154.8296189685021
 20
115.5069336392019
 10
154.8118444292454
 20
115.4908062861998
 10
154.7956847784735
 20
115.4730532787895
 10
154.7812799731885
 20
115.4537930421268
 10
154.7687376726228
 20
115.4331762991367
 10
154.7581978337783
 20
115.4113107090517
 10
154.7497681158873
 20
115.3883254629505
 10
154.7435992418751
 20
115.3643389859887
 10
154.7397988709741
 20
115.3394912351683
 10
154.7385069601862
 20
115.3138898697216
 10
154.7385069601862
 20
115.3138898697216
 10
154.7398096368973
 20
115.2883530998143
 10
154.7435992418751
 20
115.2635591786101
 10
154.7497681158873
 20
115.2396157653412
 10
154.758187067855
 20
115.216673582933
 10
154.7687376726228
 20
115.1948295246944
 10
154.7812799731885
 20
115.174245079474
 10
154.7956955443968
 20
115.1550171405809
 10
154.8118444292454
 20
115.1372748990939
 10
154.8296082025788
 20
115.121158312015
 10
154.8488792051648
 20
115.1067750385765
 10
154.8695067140781
 20
115.0942650357805
 10
154.8913615382399
 20
115.0837467287824
 10
154.9143252524947
 20
115.0753493086611
 10
154.9382794316868
 20
115.0691912005722
 10
154.9630948847375
 20
115.0654123615176
 10
154.9886316546447
 20
115.0641204507297
  0
TEXT
  5
8C
330
1F
100
AcDbEntity
  8
ISS138金台
  6
Continuous
 62
   250
420
  2367521
100
AcDbText
 10
107.8782112026399
 20
121.7974012612
 30
0.0
 40
2.150533301035563
  1
20
 41
0.9460029602050779
  7
MS Gothic
100
AcDbText
  0
TEXT
  5
8D
330
1F
100
AcDbEntity
  8
ISS138金台
  6
Continuous
 62
   250
420
  2367521
100
AcDbText
 10
120.5133032607369
 20
101.2911381753472
 30
0.0
 40
2.150533301035563
  1
45
 41
0.9440002441406249
  7
MS Gothic
100
AcDbText
  0
TEXT
  5
8E
330
1F
100
AcDbEntity
  8
ISS138金台
  6
Continuous
 62
   250
420
  2367521
100
AcDbText
 10
148.6596327933979
 20
110.4009576785265
 30
0.0
 40
2.150533301035563
  1
8
 50
90.00000250447816
 41
0.8780059814453123
  7
MS Gothic
100
AcDbText
  0
TEXT
  5
8F
330
1F
100
AcDbEntity
  8
ISS138金台
  6
Continuous
 62
   250
420
  2367521
100
AcDbText
 10
153.8638154884052
 20
108.4592695939453
 30
0.0
 40
2.150533301035563
  1
9
 50
90.00000250447816
 41
0.8740005493164061
  7
MS Gothic
100
AcDbText
  0
TEXT
  5
90
330
1F
100
AcDbEntity
  8
ISS138金台
  6
Continuous
 62
   250
420
  2367521
100
AcDbText
 10
153.8638154884052
 20
110.0002069521233
 30
0.0
 40
2.150533301035563
  1
.  5
 50
90.00000250447816
 41
0.3851574659347534
  7
MS Gothic
100
AcDbText
  0
ENDSEC
  0
SECTION
  2
OBJECTS
  0
DICTIONARY
  5
C
330
0
100
AcDbDictionary
281
     1
  3
ACAD_DETAILVIEWSTYLE
350
98
  3
ACAD_GROUP
350
D
  3
ACAD_LAYOUT
350
1A
  3
ACAD_MATERIAL
350
43
  3
ACAD_MLEADERSTYLE
350
5B
  3
ACAD_MLINESTYLE
350
17
  3
ACAD_PLOTSETTINGS
350
19
  3
ACAD_PLOTSTYLENAME
350
E
  3
ACAD_SCALELIST
350
47
  3
ACAD_SECTIONVIEWSTYLE
350
99
  3
ACAD_TABLESTYLE
350
59
  3
ACAD_VISUALSTYLE
350
2A
  3
ACDB_RECOMPOSE_DATA
350
95
  3
AcDbVariableDictionary
350
91
  0
SUN
  5
5D
330
29
100
AcDbSun
 90
        1
290
     0
 63
     7
421
 16777215
 40
1.0
291
     1
 91
  2455826
 92
 54000000
292
     0
 70
     2
 71
   256
280
     1
  0
DICTIONARY
  5
98
102
{ACAD_REACTORS
330
C
102
}
330
C
100
AcDbDictionary
281
     1
  0
DICTIONARY
  5
D
102
{ACAD_REACTORS
330
C
102
}
330
C
100
AcDbDictionary
281
     1
  0
DICTIONARY
  5
1A
102
{ACAD_REACTORS
330
C
102
}
330
C
100
AcDbDictionary
281
     1
  3
Layout1
350
1E
  3
Layout2
350
26
  3
Model
350
22
  0
DICTIONARY
  5
43
102
{ACAD_REACTORS
330
C
102
}
330
C
100
AcDbDictionary
281
     1
  3
ByBlock
350
45
  3
ByLayer
350
44
  3
Global
350
46
  0
DICTIONARY
  5
5B
102
{ACAD_REACTORS
330
C
102
}
330
C
100
AcDbDictionary
281
     1
  3
Standard
350
5C
  0
DICTIONARY
  5
17
102
{ACAD_REACTORS
330
C
102
}
330
C
100
AcDbDictionary
281
     1
  3
Standard
350
18
  0
DICTIONARY
  5
19
102
{ACAD_REACTORS
330
C
102
}
330
C
100
AcDbDictionary
281
     1
  0
ACDBDICTIONARYWDFLT
  5
E
102
{ACAD_REACTORS
330
C
102
}
330
C
100
AcDbDictionary
281
     1
  3
Normal
350
F
100
AcDbDictionaryWithDefault
340
F
  0
DICTIONARY
  5
47
102
{ACAD_REACTORS
330
C
102
}
330
C
100
AcDbDictionary
281
     1
  3
A0
350
48
  3
A1
350
49
  3
A2
350
4A
  3
A3
350
4B
  3
A4
350
4C
  3
A5
350
4D
  3
A6
350
4E
  3
A7
350
4F
  3
A8
350
50
  3
A9
350
51
  3
B0
350
52
  3
B1
350
53
  3
B2
350
54
  3
B3
350
55
  3
B4
350
56
  3
B5
350
57
  3
B6
350
58
  0
DICTIONARY
  5
99
102
{ACAD_REACTORS
330
C
102
}
330
C
100
AcDbDictionary
281
     1
  0
DICTIONARY
  5
59
102
{ACAD_REACTORS
330
C
102
}
330
C
100
AcDbDictionary
281
     1
  3
Standard
350
5A
  0
DICTIONARY
  5
2A
102
{ACAD_REACTORS
330
C
102
}
330
C
100
AcDbDictionary
281
     1
  3
2dWireframe
350
2F
  3
Basic
350
32
  3
Brighten
350
36
  3
ColorChange
350
3A
  3
Conceptual
350
34
  3
Dim
350
35
  3
EdgeColorOff
350
3D
  3
Facepattern
350
39
  3
Flat
350
2B
  3
FlatWithEdges
350
2C
  3
Gouraud
350
2D
  3
GouraudWithEdges
350
2E
  3
Hidden
350
31
  3
JitterOff
350
3B
  3
Linepattern
350
38
  3
OverhangOff
350
3C
  3
Realistic
350
33
  3
Shaded
350
42
  3
Shaded with edges
350
41
  3
Shades of Gray
350
3E
  3
Sketchy
350
3F
  3
Thicken
350
37
  3
Wireframe
350
30
  3
X-Ray
350
40
  0
XRECORD
  5
95
102
{ACAD_REACTORS
330
C
102
}
330
C
100
AcDbXrecord
280
     1
 90
        1
330
5A
  0
DICTIONARY
  5
91
102
{ACAD_REACTORS
330
C
102
}
330
C
100
AcDbDictionary
281
     1
  3
CANNOSCALE
350
92
  3
CENTEREXE
350
9A
  3
CENTERLTYPEFILE
350
9B
  3
CMLEADERSTYLE
350
97
  3
CTABLESTYLE
350
96
  0
LAYOUT
  5
1E
102
{ACAD_REACTORS
330
1A
102
}
330
1A
100
AcDbPlotSettings
  1

  2
none_device
  4

  6

 40
0.0
 41
0.0
 42
0.0
 43
0.0
 44
0.0
 45
0.0
 46
0.0
 47
0.0
 48
0.0
 49
0.0
140
0.0
141
0.0
142
1.0
143
1.0
 70
   688
 72
     1
 73
     0
 74
     5
  7

 75
    16
 76
     0
 77
     5
 78
   300
147
1.0
148
0.0
149
0.0
100
AcDbLayout
  1
Layout1
 70
     1
 71
     1
 10
0.0
 20
0.0
 11
420.0
 21
297.0
 12
0.0
 22
0.0
 32
0.0
 14
1.000000000000000E+20
 24
1.000000000000000E+20
 34
1.000000000000000E+20
 15
-1.000000000000000E+20
 25
-1.000000000000000E+20
 35
-1.000000000000000E+20
146
0.0
 13
0.0
 23
0.0
 33
0.0
 16
1.0
 26
0.0
 36
0.0
 17
0.0
 27
1.0
 37
0.0
 76
     0
330
1B
  0
LAYOUT
  5
26
102
{ACAD_REACTORS
330
1A
102
}
330
1A
100
AcDbPlotSettings
  1

  2
none_device
  4

  6

 40
0.0
 41
0.0
 42
0.0
 43
0.0
 44
0.0
 45
0.0
 46
0.0
 47
0.0
 48
0.0
 49
0.0
140
0.0
141
0.0
142
1.0
143
1.0
 70
   688
 72
     1
 73
     0
 74
     5
  7

 75
    16
 76
     0
 77
     5
 78
   300
147
1.0
148
0.0
149
0.0
100
AcDbLayout
  1
Layout2
 70
     1
 71
     2
 10
0.0
 20
0.0
 11
0.0
 21
0.0
 12
0.0
 22
0.0
 32
0.0
 14
0.0
 24
0.0
 34
0.0
 15
0.0
 25
0.0
 35
0.0
146
0.0
 13
0.0
 23
0.0
 33
0.0
 16
1.0
 26
0.0
 36
0.0
 17
0.0
 27
1.0
 37
0.0
 76
     0
330
23
  0
LAYOUT
  5
22
102
{ACAD_REACTORS
330
1A
102
}
330
1A
100
AcDbPlotSettings
  1

  2
none_device
  4
Letter_(8.50_x_11.00_Inches)
  6

 40
6.35
 41
6.35
 42
6.35000508
 43
6.35000508
 44
215.9
 45
279.4
 46
0.0
 47
0.0
 48
0.0
 49
0.0
140
0.0
141
0.0
142
1.0
143
1.0
 70
  1712
 72
     1
 73
     0
 74
     0
  7

 75
     0
 76
     0
 77
     5
 78
   300
147
1.0
148
0.0
149
0.0
100
AcDbLayout
  1
Model
 70
     1
 71
     0
 10
0.0
 20
0.0
 11
302.9997823349792
 21
216.0016055409748
 12
0.0
 22
0.0
 32
0.0
 14
0.0
 24
0.0
 34
0.0
 15
302.9997823349792
 25
216.0016055409748
 35
0.0
146
0.0
 13
0.0
 23
0.0
 33
0.0
 16
1.0
 26
0.0
 36
0.0
 17
0.0
 27
1.0
 37
0.0
 76
     0
330
1F
331
29
  0
MATERIAL
  5
45
102
{ACAD_REACTORS
330
43
102
}
330
43
100
AcDbMaterial
  1
ByBlock
 72
     1
 94
      127
  0
MATERIAL
  5
44
102
{ACAD_REACTORS
330
43
102
}
330
43
100
AcDbMaterial
  1
ByLayer
 72
     1
 94
      127
  0
MATERIAL
  5
46
102
{ACAD_REACTORS
330
43
102
}
330
43
100
AcDbMaterial
  1
Global
 72
     1
 94
      127
  0
MLEADERSTYLE
  5
5C
102
{ACAD_REACTORS
330
5B
102
}
330
5B
100
AcDbMLeaderStyle
179
     2
170
     2
171
     1
172
     0
 90
        2
 40
0.0
 41
0.0
173
     1
 91
-1056964608
340
14
 92
       -2
290
     1
 42
2.0
291
     1
 43
8.0
  3
Standard
341
0
 44
4.0
300

342
11
174
     1
178
     6
175
     1
176
     0
 93
-1056964608
 45
4.0
292
     0
297
     0
 46
4.0
343
0
 94
-1056964608
 47
1.0
 49
1.0
140
1.0
293
     1
141
0.0
294
     1
177
     0
142
1.0
295
     0
296
     0
143
3.75
271
     0
272
     9
273
     9
298
     0
  0
MLINESTYLE
  5
18
102
{ACAD_REACTORS
330
17
102
}
330
17
100
AcDbMlineStyle
  2
Standard
 70
     0
  3

 62
   256
 51
90.0
 52
90.0
 71
     2
 49
0.5
 62
   256
  6
BYLAYER
 49
-0.5
 62
   256
  6
BYLAYER
  0
ACDBPLACEHOLDER
  5
F
102
{ACAD_REACTORS
330
E
102
}
330
E
  0
SCALE
  5
48
102
{ACAD_REACTORS
330
47
102
}
330
47
100
AcDbScale
 70
     0
300
1:1
140
1.0
141
1.0
290
     1
  0
SCALE
  5
49
102
{ACAD_REACTORS
330
47
102
}
330
47
100
AcDbScale
 70
     0
300
1:2
140
1.0
141
2.0
290
     0
  0
SCALE
  5
4A
102
{ACAD_REACTORS
330
47
102
}
330
47
100
AcDbScale
 70
     0
300
1:4
140
1.0
141
4.0
290
     0
  0
SCALE
  5
4B
102
{ACAD_REACTORS
330
47
102
}
330
47
100
AcDbScale
 70
     0
300
1:5
140
1.0
141
5.0
290
     0
  0
SCALE
  5
4C
102
{ACAD_REACTORS
330
47
102
}
330
47
100
AcDbScale
 70
     0
300
1:8
140
1.0
141
8.0
290
     0
  0
SCALE
  5
4D
102
{ACAD_REACTORS
330
47
102
}
330
47
100
AcDbScale
 70
     0
300
1:10
140
1.0
141
10.0
290
     0
  0
SCALE
  5
4E
102
{ACAD_REACTORS
330
47
102
}
330
47
100
AcDbScale
 70
     0
300
1:16
140
1.0
141
16.0
290
     0
  0
SCALE
  5
4F
102
{ACAD_REACTORS
330
47
102
}
330
47
100
AcDbScale
 70
     0
300
1:20
140
1.0
141
20.0
290
     0
  0
SCALE
  5
50
102
{ACAD_REACTORS
330
47
102
}
330
47
100
AcDbScale
 70
     0
300
1:30
140
1.0
141
30.0
290
     0
  0
SCALE
  5
51
102
{ACAD_REACTORS
330
47
102
}
330
47
100
AcDbScale
 70
     0
300
1:40
140
1.0
141
40.0
290
     0
  0
SCALE
  5
52
102
{ACAD_REACTORS
330
47
102
}
330
47
100
AcDbScale
 70
     0
300
1:50
140
1.0
141
50.0
290
     0
  0
SCALE
  5
53
102
{ACAD_REACTORS
330
47
102
}
330
47
100
AcDbScale
 70
     0
300
1:100
140
1.0
141
100.0
290
     0
  0
SCALE
  5
54
102
{ACAD_REACTORS
330
47
102
}
330
47
100
AcDbScale
 70
     0
300
2:1
140
2.0
141
1.0
290
     0
  0
SCALE
  5
55
102
{ACAD_REACTORS
330
47
102
}
330
47
100
AcDbScale
 70
     0
300
4:1
140
4.0
141
1.0
290
     0
  0
SCALE
  5
56
102
{ACAD_REACTORS
330
47
102
}
330
47
100
AcDbScale
 70
     0
300
8:1
140
8.0
141
1.0
290
     0
  0
SCALE
  5
57
102
{ACAD_REACTORS
330
47
102
}
330
47
100
AcDbScale
 70
     0
300
10:1
140
10.0
141
1.0
290
     0
  0
SCALE
  5
58
102
{ACAD_REACTORS
330
47
102
}
330
47
100
AcDbScale
 70
     0
300
100:1
140
100.0
141
1.0
290
     0
  0
TABLESTYLE
  5
5A
102
{ACAD_REACTORS
330
59
102
}
102
{ACAD_XDICTIONARY
360
93
102
}
330
59
100
AcDbTableStyle
  3
Standard
 70
     0
 71
     0
 40
0.06
 41
0.06
280
     0
281
     0
  7
Standard
140
4.5
170
     2
 62
     0
 63
   257
283
     0
 90
        4
 91
        0
  1

274
    -2
284
     1
 64
     0
275
    -2
285
     1
 65
     0
276
    -2
286
     1
 66
     0
277
    -2
287
     1
 67
     0
278
    -2
288
     1
 68
     0
279
    -2
289
     1
 69
     0
  7
Standard
140
6.0
170
     5
 62
     0
 63
   257
283
     0
 90
        4
 91
        0
  1

274
    -2
284
     1
 64
     0
275
    -2
285
     1
 65
     0
276
    -2
286
     1
 66
     0
277
    -2
287
     1
 67
     0
278
    -2
288
     1
 68
     0
279
    -2
289
     1
 69
     0
  7
Standard
140
4.5
170
     5
 62
     0
 63
   257
283
     0
 90
        4
 91
        0
  1

274
    -2
284
     1
 64
     0
275
    -2
285
     1
 65
     0
276
    -2
286
     1
 66
     0
277
    -2
287
     1
 67
     0
278
    -2
288
     1
 68
     0
279
    -2
289
     1
 69
     0
  0
VISUALSTYLE
  5
2F
102
{ACAD_REACTORS
330
2A
102
}
330
2A
100
AcDbVisualStyle
  2
2dWireframe
 70
     4
177
     3
291
     0
 70
    58
 90
        0
176
     1
 90
        2
176
     1
 90
        0
176
     1
 90
        0
176
     1
 40
0.6
176
     1
 40
30.0
176
     1
 62
     7
420
 16777215
176
     1
 90
        1
176
     1
 90
        4
176
     1
 62
     7
176
     1
 62
   257
176
     1
 90
        1
176
     1
 90
        1
176
     1
 40
1.0
176
     1
 90
        0
176
     1
 62
   257
176
     1
 40
1.0
176
     1
 90
        1
176
     1
 90
        6
176
     1
 90
        2
176
     1
 62
     7
176
     1
 90
        5
176
     1
 90
        0
176
     1
 90
        0
176
     1
290
     0
176
     1
 90
        1
176
     1
 40
0.0
176
     1
 90
        0
176
     1
290
     1
176
     1
290
     1
176
     1
290
     0
176
     1
290
     0
176
     1
290
     0
176
     1
290
     0
176
     1
290
     0
176
     1
290
     0
176
     1
290
     0
176
     1
 90
       50
176
     1
 40
0.0
176
     1
 40
1.0
176
     1
 90
        0
176
     1
 62
    18
420
        0
176
     1
 90
       50
176
     1
 90
        3
176
     1
 62
     5
420
      255
176
     1
290
     0
176
     1
 90
       50
176
     1
 90
       50
176
     1
 90
       50
176
     1
290
     0
176
     1
 90
       50
176
     1
 62
   256
176
     0
 40
1.0
176
     0
 90
        2
176
     1
  1
strokes_ogs.tif
176
     1
290
     0
176
     1
 40
1.0
176
     1
 40
1.0
176
     1
  0
VISUALSTYLE
  5
32
102
{ACAD_REACTORS
330
2A
102
}
330
2A
100
AcDbVisualStyle
  2
Basic
 70
     7
177
     3
291
     1
 70
    58
 90
        1
176
     1
 90
        0
176
     1
 90
        1
176
     1
 90
        0
176
     1
 40
0.6
176
     1
 40
30.0
176
     1
 62
     7
420
 16777215
176
     1
 90
        0
176
     1
 90
        4
176
     1
 62
     7
176
     1
 62
   257
176
     1
 90
        1
176
     1
 90
        1
176
     1
 40
1.0
176
     1
 90
        8
176
     1
 62
     7
176
     1
 40
1.0
176
     1
 90
        1
176
     1
 90
        6
176
     1
 90
        2
176
     1
 62
     7
176
     1
 90
        5
176
     1
 90
        0
176
     1
 90
        0
176
     1
290
     0
176
     1
 90
        1
176
     1
 40
0.0
176
     1
 90
        0
176
     1
290
     0
176
     1
290
     1
176
     1
290
     1
176
     1
290
     0
176
     1
290
     0
176
     1
290
     0
176
     1
290
     0
176
     1
290
     0
176
     1
290
     0
176
     1
 90
       50
176
     1
 40
0.0
176
     1
 40
1.0
176
     1
 90
        0
176
     1
 62
    18
420
        0
176
     1
 90
       50
176
     1
 90
        3
176
     1
 62
     5
420
      255
176
     1
290
     0
176
     1
 90
       50
176
     1
 90
       50
176
     1
 90
       50
176
     1
290
     0
176
     1
 90
       50
176
     1
 62
   256
176
     0
 40
1.0
176
     0
 90
        2
176
     1
  1
strokes_ogs.tif
176
     1
290
     0
176
     1
 40
1.0
176
     1
 40
1.0
176
     1
  0
VISUALSTYLE
  5
36
102
{ACAD_REACTORS
330
2A
102
}
330
2A
100
AcDbVisualStyle
  2
Brighten
 70
    12
177
     3
291
     1
 70
    58
 90
        2
176
     1
 90
        2
176
     1
 90
        0
176
     1
 90
        0
176
     1
 40
0.6
176
     1
 40
30.0
176
     1
 62
     7
420
 16777215
176
     1
 90
        1
176
     1
 90
        4
176
     1
 62
     7
176
     1
 62
   257
176
     1
 90
        1
176
     1
 90
        1
176
     1
 40
1.0
176
     1
 90
        8
176
     1
 62
     7
176
     1
 40
1.0
176
     1
 90
        1
176
     1
 90
        6
176
     1
 90
        2
176
     1
 62
     7
176
     1
 90
        5
176
     1
 90
        0
176
     1
 90
        0
176
     1
290
     0
176
     1
 90
        1
176
     1
 40
50.0
176
     1
 90
        0
176
     1
290
     0
176
     1
290
     1
176
     1
290
     1
176
     1
290
     0
176
     1
290
     0
176
     1
290
     0
176
     1
290
     0
176
     1
290
     0
176
     1
290
     0
176
     1
 90
       50
176
     1
 40
0.0
176
     1
 40
1.0
176
     1
 90
        0
176
     1
 62
    18
420
        0
176
     1
 90
       50
176
     1
 90
        3
176
     1
 62
     5
420
      255
176
     1
290
     0
176
     1
 90
       50
176
     1
 90
       50
176
     1
 90
       50
176
     1
290
     0
176
     1
 90
       50
176
     1
 62
   256
176
     0
 40
1.0
176
     0
 90
        2
176
     1
  1
strokes_ogs.tif
176
     1
290
     0
176
     1
 40
1.0
176
     1
 40
1.0
176
     1
  0
VISUALSTYLE
  5
3A
102
{ACAD_REACTORS
330
2A
102
}
330
2A
100
AcDbVisualStyle
  2
ColorChange
 70
    16
177
     3
291
     1
 70
    58
 90
        2
176
     1
 90
        2
176
     1
 90
        3
176
     1
 90
        0
176
     1
 40
0.6
176
     1
 40
30.0
176
     1
 62
     8
420
  8421504
176
     1
 90
        1
176
     1
 90
        4
176
     1
 62
     7
176
     1
 62
   257
176
     1
 90
        1
176
     1
 90
        1
176
     1
 40
1.0
176
     1
 90
        8
176
     1
 62
     8
420
  8421504
176
     1
 40
1.0
176
     1
 90
        1
176
     1
 90
        6
176
     1
 90
        2
176
     1
 62
     7
176
     1
 90
        5
176
     1
 90
        0
176
     1
 90
        0
176
     1
290
     0
176
     1
 90
        1
176
     1
 40
0.0
176
     1
 90
        0
176
     1
290
     0
176
     1
290
     1
176
     1
290
     1
176
     1
290
     0
176
     1
290
     0
176
     1
290
     0
176
     1
290
     0
176
     1
290
     0
176
     1
290
     0
176
     1
 90
       50
176
     1
 40
0.0
176
     1
 40
1.0
176
     1
 90
        0
176
     1
 62
    18
420
        0
176
     1
 90
       50
176
     1
 90
        3
176
     1
 62
     5
420
      255
176
     1
290
     0
176
     1
 90
       50
176
     1
 90
       50
176
     1
 90
       50
176
     1
290
     0
176
     1
 90
       50
176
     1
 62
   256
176
     0
 40
1.0
176
     0
 90
        2
176
     1
  1
strokes_ogs.tif
176
     1
290
     0
176
     1
 40
1.0
176
     1
 40
1.0
176
     1
  0
VISUALSTYLE
  5
34
102
{ACAD_REACTORS
330
2A
102
}
330
2A
100
AcDbVisualStyle
  2
Conceptual
 70
     9
177
     3
291
     0
 70
    58
 90
        3
176
     1
 90
        2
176
     1
 90
        0
176
     1
 90
        0
176
     1
 40
0.6
176
     1
 40
30.0
176
     1
 62
     7
420
 16777215
176
     1
 90
        2
176
     1
 90
        2
176
     1
 62
     7
176
     1
 62
   257
176
     1
 90
        1
176
     1
 90
        1
176
     1
 40
179.0
176
     1
 90
        8
176
     1
 62
     7
176
     1
 40
1.0
176
     1
 90
        1
176
     1
 90
        6
176
     1
 90
        2
176
     1
 62
     7
176
     1
 90
        3
176
     1
 90
        0
176
     1
 90
        0
176
     1
290
     0
176
     1
 90
        1
176
     1
 40
0.0
176
     1
 90
        0
176
     1
290
     0
176
     1
290
     1
176
     1
290
     1
176
     1
290
     0
176
     1
290
     0
176
     1
290
     0
176
     1
290
     0
176
     1
290
     0
176
     1
290
     0
176
     1
 90
       50
176
     1
 40
0.0
176
     1
 40
1.0
176
     1
 90
        0
176
     1
 62
    18
420
        0
176
     1
 90
       50
176
     1
 90
        3
176
     1
 62
     5
420
      255
176
     1
290
     0
176
     1
 90
       50
176
     1
 90
       50
176
     1
 90
       50
176
     1
290
     0
176
     1
 90
       50
176
     1
 62
   256
176
     0
 40
1.0
176
     0
 90
        2
176
     1
  1
strokes_ogs.tif
176
     1
290
     0
176
     1
 40
1.0
176
     1
 40
1.0
176
     1
  0
VISUALSTYLE
  5
35
102
{ACAD_REACTORS
330
2A
102
}
330
2A
100
AcDbVisualStyle
  2
Dim
 70
    11
177
     3
291
     1
 70
    58
 90
        2
176
     1
 90
        2
176
     1
 90
        0
176
     1
 90
        0
176
     1
 40
0.6
176
     1
 40
30.0
176
     1
 62
     7
420
 16777215
176
     1
 90
        1
176
     1
 90
        4
176
     1
 62
     7
176
     1
 62
   257
176
     1
 90
        1
176
     1
 90
        1
176
     1
 40
1.0
176
     1
 90
        8
176
     1
 62
     7
176
     1
 40
1.0
176
     1
 90
        1
176
     1
 90
        6
176
     1
 90
        2
176
     1
 62
     7
176
     1
 90
        5
176
     1
 90
        0
176
     1
 90
        0
176
     1
290
     0
176
     1
 90
        1
176
     1
 40
-50.0
176
     1
 90
        0
176
     1
290
     0
176
     1
290
     1
176
     1
290
     1
176
     1
290
     0
176
     1
290
     0
176
     1
290
     0
176
     1
290
     0
176
     1
290
     0
176
     1
290
     0
176
     1
 90
       50
176
     1
 40
0.0
176
     1
 40
1.0
176
     1
 90
        0
176
     1
 62
    18
420
        0
176
     1
 90
       50
176
     1
 90
        3
176
     1
 62
     5
420
      255
176
     1
290
     0
176
     1
 90
       50
176
     1
 90
       50
176
     1
 90
       50
176
     1
290
     0
176
     1
 90
       50
176
     1
 62
   256
176
     0
 40
1.0
176
     0
 90
        2
176
     1
  1
strokes_ogs.tif
176
     1
290
     0
176
     1
 40
1.0
176
     1
 40
1.0
176
     1
  0
VISUALSTYLE
  5
3D
102
{ACAD_REACTORS
330
2A
102
}
330
2A
100
AcDbVisualStyle
  2
EdgeColorOff
 70
    22
177
     3
291
     1
 70
    58
 90
        2
176
     0
 90
        2
176
     0
 90
        0
176
     0
 90
        0
176
     0
 40
0.6
176
     0
 40
30.0
176
     0
 62
     7
420
 16777215
176
     0
 90
        1
176
     0
 90
        4
176
     0
 62
     7
176
     0
 62
   257
176
     0
 90
        1
176
     0
 90
        1
176
     0
 40
1.0
176
     0
 90
        8
176
     2
 62
     7
176
     0
 40
1.0
176
     0
 90
        1
176
     0
 90
        6
176
     0
 90
        2
176
     0
 62
     7
176
     0
 90
        5
176
     0
 90
        0
176
     0
 90
        0
176
     0
290
     0
176
     0
 90
        1
176
     0
 40
0.0
176
     0
 90
        0
176
     0
290
     0
176
     0
290
     1
176
     0
290
     1
176
     0
290
     0
176
     0
290
     0
176
     0
290
     0
176
     0
290
     0
176
     0
290
     0
176
     0
290
     0
176
     0
 90
       50
176
     0
 40
0.0
176
     0
 40
1.0
176
     0
 90
        0
176
     0
 62
    18
420
        0
176
     0
 90
       50
176
     0
 90
        3
176
     0
 62
     5
420
      255
176
     0
290
     0
176
     0
 90
       50
176
     0
 90
       50
176
     0
 90
       50
176
     0
290
     0
176
     0
 90
       50
176
     0
 62
   256
176
     0
 40
1.0
176
     0
 90
        2
176
     0
  1
strokes_ogs.tif
176
     0
290
     0
176
     0
 40
1.0
176
     0
 40
1.0
176
     0
  0
VISUALSTYLE
  5
39
102
{ACAD_REACTORS
330
2A
102
}
330
2A
100
AcDbVisualStyle
  2
Facepattern
 70
    15
177
     3
291
     1
 70
    58
 90
        2
176
     1
 90
        2
176
     1
 90
        0
176
     1
 90
        0
176
     1
 40
0.6
176
     1
 40
30.0
176
     1
 62
     7
420
 16777215
176
     1
 90
        1
176
     1
 90
        4
176
     1
 62
     7
176
     1
 62
   257
176
     1
 90
        1
176
     1
 90
        1
176
     1
 40
1.0
176
     1
 90
        8
176
     1
 62
     7
176
     1
 40
1.0
176
     1
 90
        1
176
     1
 90
        6
176
     1
 90
        2
176
     1
 62
     7
176
     1
 90
        5
176
     1
 90
        0
176
     1
 90
        0
176
     1
290
     0
176
     1
 90
        1
176
     1
 40
0.0
176
     1
 90
        0
176
     1
290
     0
176
     1
290
     1
176
     1
290
     1
176
     1
290
     0
176
     1
290
     0
176
     1
290
     0
176
     1
290
     0
176
     1
290
     0
176
     1
290
     0
176
     1
 90
       50
176
     1
 40
0.0
176
     1
 40
1.0
176
     1
 90
        0
176
     1
 62
    18
420
        0
176
     1
 90
       50
176
     1
 90
        3
176
     1
 62
     5
420
      255
176
     1
290
     0
176
     1
 90
       50
176
     1
 90
       50
176
     1
 90
       50
176
     1
290
     0
176
     1
 90
       50
176
     1
 62
   256
176
     0
 40
1.0
176
     0
 90
        2
176
     1
  1
strokes_ogs.tif
176
     1
290
     0
176
     1
 40
1.0
176
     1
 40
1.0
176
     1
  0
VISUALSTYLE
  5
2B
102
{ACAD_REACTORS
330
2A
102
}
330
2A
100
AcDbVisualStyle
  2
Flat
 70
     0
177
     3
291
     1
 70
    58
 90
        2
176
     1
 90
        1
176
     1
 90
        1
176
     1
 90
        2
176
     1
 40
0.6
176
     1
 40
30.0
176
     1
 62
     7
420
 16777215
176
     1
 90
        0
176
     1
 90
        0
176
     1
 62
     7
176
     1
 62
   257
176
     1
 90
        1
176
     1
 90
        1
176
     1
 40
1.0
176
     1
 90
        8
176
     1
 62
     7
176
     1
 40
1.0
176
     1
 90
        1
176
     1
 90
        6
176
     1
 90
        2
176
     1
 62
     7
176
     1
 90
        5
176
     1
 90
        0
176
     1
 90
        0
176
     1
290
     0
176
     1
 90
       13
176
     1
 40
0.0
176
     1
 90
        0
176
     1
290
     0
176
     1
290
     1
176
     1
290
     1
176
     1
290
     0
176
     1
290
     0
176
     1
290
     0
176
     1
290
     0
176
     1
290
     0
176
     1
290
     0
176
     1
 90
       50
176
     1
 40
0.0
176
     1
 40
1.0
176
     1
 90
        0
176
     1
 62
    18
420
        0
176
     1
 90
       50
176
     1
 90
        3
176
     1
 62
     5
420
      255
176
     1
290
     0
176
     1
 90
       50
176
     1
 90
       50
176
     1
 90
       50
176
     1
290
     0
176
     1
 90
       50
176
     1
 62
   256
176
     0
 40
1.0
176
     0
 90
        2
176
     1
  1
strokes_ogs.tif
176
     1
290
     0
176
     1
 40
1.0
176
     1
 40
1.0
176
     1
  0
VISUALSTYLE
  5
2C
102
{ACAD_REACTORS
330
2A
102
}
330
2A
100
AcDbVisualStyle
  2
FlatWithEdges
 70
     1
177
     3
291
     1
 70
    58
 90
        2
176
     1
 90
        1
176
     1
 90
        1
176
     1
 90
        2
176
     1
 40
0.6
176
     1
 40
30.0
176
     1
 62
     7
420
 16777215
176
     1
 90
        1
176
     1
 90
        0
176
     1
 62
     7
176
     1
 62
   257
176
     1
 90
        1
176
     1
 90
        1
176
     1
 40
1.0
176
     1
 90
        0
176
     1
 62
   257
176
     1
 40
1.0
176
     1
 90
        1
176
     1
 90
        6
176
     1
 90
        2
176
     1
 62
     7
176
     1
 90
        5
176
     1
 90
        0
176
     1
 90
        0
176
     1
290
     0
176
     1
 90
       13
176
     1
 40
0.0
176
     1
 90
        0
176
     1
290
     0
176
     1
290
     1
176
     1
290
     1
176
     1
290
     0
176
     1
290
     0
176
     1
290
     0
176
     1
290
     0
176
     1
290
     0
176
     1
290
     0
176
     1
 90
       50
176
     1
 40
0.0
176
     1
 40
1.0
176
     1
 90
        0
176
     1
 62
    18
420
        0
176
     1
 90
       50
176
     1
 90
        3
176
     1
 62
     5
420
      255
176
     1
290
     0
176
     1
 90
       50
176
     1
 90
       50
176
     1
 90
       50
176
     1
290
     0
176
     1
 90
       50
176
     1
 62
   256
176
     0
 40
1.0
176
     0
 90
        2
176
     1
  1
strokes_ogs.tif
176
     1
290
     0
176
     1
 40
1.0
176
     1
 40
1.0
176
     1
  0
VISUALSTYLE
  5
2D
102
{ACAD_REACTORS
330
2A
102
}
330
2A
100
AcDbVisualStyle
  2
Gouraud
 70
     2
177
     3
291
     1
 70
    58
 90
        2
176
     1
 90
        2
176
     1
 90
        1
176
     1
 90
        2
176
     1
 40
0.6
176
     1
 40
30.0
176
     1
 62
     7
420
 16777215
176
     1
 90
        0
176
     1
 90
        0
176
     1
 62
     7
176
     1
 62
   257
176
     1
 90
        1
176
     1
 90
        1
176
     1
 40
1.0
176
     1
 90
        0
176
     1
 62
     7
176
     1
 40
1.0
176
     1
 90
        1
176
     1
 90
        6
176
     1
 90
        2
176
     1
 62
     7
176
     1
 90
        5
176
     1
 90
        0
176
     1
 90
        0
176
     1
290
     0
176
     1
 90
       13
176
     1
 40
0.0
176
     1
 90
        0
176
     1
290
     0
176
     1
290
     1
176
     1
290
     1
176
     1
290
     0
176
     1
290
     0
176
     1
290
     0
176
     1
290
     0
176
     1
290
     0
176
     1
290
     0
176
     1
 90
       50
176
     1
 40
0.0
176
     1
 40
1.0
176
     1
 90
        0
176
     1
 62
    18
420
        0
176
     1
 90
       50
176
     1
 90
        3
176
     1
 62
     5
420
      255
176
     1
290
     0
176
     1
 90
       50
176
     1
 90
       50
176
     1
 90
       50
176
     1
290
     0
176
     1
 90
       50
176
     1
 62
   256
176
     0
 40
1.0
176
     0
 90
        2
176
     1
  1
strokes_ogs.tif
176
     1
290
     0
176
     1
 40
1.0
176
     1
 40
1.0
176
     1
  0
VISUALSTYLE
  5
2E
102
{ACAD_REACTORS
330
2A
102
}
330
2A
100
AcDbVisualStyle
  2
GouraudWithEdges
 70
     3
177
     3
291
     1
 70
    58
 90
        2
176
     1
 90
        2
176
     1
 90
        1
176
     1
 90
        2
176
     1
 40
0.6
176
     1
 40
30.0
176
     1
 62
     7
420
 16777215
176
     1
 90
        1
176
     1
 90
        0
176
     1
 62
     7
176
     1
 62
   257
176
     1
 90
        1
176
     1
 90
        1
176
     1
 40
1.0
176
     1
 90
        0
176
     1
 62
   257
176
     1
 40
1.0
176
     1
 90
        1
176
     1
 90
        6
176
     1
 90
        2
176
     1
 62
     7
176
     1
 90
        5
176
     1
 90
        0
176
     1
 90
        0
176
     1
290
     0
176
     1
 90
       13
176
     1
 40
0.0
176
     1
 90
        0
176
     1
290
     0
176
     1
290
     1
176
     1
290
     1
176
     1
290
     0
176
     1
290
     0
176
     1
290
     0
176
     1
290
     0
176
     1
290
     0
176
     1
290
     0
176
     1
 90
       50
176
     1
 40
0.0
176
     1
 40
1.0
176
     1
 90
        0
176
     1
 62
    18
420
        0
176
     1
 90
       50
176
     1
 90
        3
176
     1
 62
     5
420
      255
176
     1
290
     0
176
     1
 90
       50
176
     1
 90
       50
176
     1
 90
       50
176
     1
290
     0
176
     1
 90
       50
176
     1
 62
   256
176
     0
 40
1.0
176
     0
 90
        2
176
     1
  1
strokes_ogs.tif
176
     1
290
     0
176
     1
 40
1.0
176
     1
 40
1.0
176
     1
  0
VISUALSTYLE
  5
31
102
{ACAD_REACTORS
330
2A
102
}
330
2A
100
AcDbVisualStyle
  2
Hidden
 70
     6
177
     3
291
     0
 70
    58
 90
        1
176
     1
 90
        2
176
     1
 90
        2
176
     1
 90
        0
176
     1
 40
0.6
176
     1
 40
30.0
176
     1
 62
     7
420
 16777215
176
     1
 90
        2
176
     1
 90
        2
176
     1
 62
     7
176
     1
 62
   257
176
     1
 90
        2
176
     1
 90
        1
176
     1
 40
40.0
176
     1
 90
        0
176
     1
 62
   257
176
     1
 40
1.0
176
     1
 90
        1
176
     1
 90
        6
176
     1
 90
        2
176
     1
 62
     7
176
     1
 90
        3
176
     1
 90
        0
176
     1
 90
        0
176
     1
290
     0
176
     1
 90
        1
176
     1
 40
0.0
176
     1
 90
        0
176
     1
290
     0
176
     1
290
     1
176
     1
290
     1
176
     1
290
     0
176
     1
290
     0
176
     1
290
     0
176
     1
290
     0
176
     1
290
     0
176
     1
290
     0
176
     1
 90
       50
176
     1
 40
0.0
176
     1
 40
1.0
176
     1
 90
        0
176
     1
 62
    18
420
        0
176
     1
 90
       50
176
     1
 90
        3
176
     1
 62
     5
420
      255
176
     1
290
     0
176
     1
 90
       50
176
     1
 90
       50
176
     1
 90
       50
176
     1
290
     0
176
     1
 90
       50
176
     1
 62
   256
176
     0
 40
1.0
176
     0
 90
        2
176
     1
  1
strokes_ogs.tif
176
     1
290
     0
176
     1
 40
1.0
176
     1
 40
1.0
176
     1
  0
VISUALSTYLE
  5
3B
102
{ACAD_REACTORS
330
2A
102
}
330
2A
100
AcDbVisualStyle
  2
JitterOff
 70
    20
177
     3
291
     1
 70
    58
 90
        2
176
     0
 90
        2
176
     0
 90
        0
176
     0
 90
        0
176
     0
 40
0.6
176
     0
 40
30.0
176
     0
 62
     7
420
 16777215
176
     0
 90
        1
176
     0
 90
        4
176
     0
 62
     7
176
     0
 62
   257
176
     0
 90
        1
176
     0
 90
        1
176
     0
 40
1.0
176
     0
 90
       10
176
     2
 62
     7
176
     0
 40
1.0
176
     0
 90
        1
176
     0
 90
        6
176
     0
 90
        2
176
     0
 62
     7
176
     0
 90
        5
176
     0
 90
        0
176
     0
 90
        0
176
     0
290
     0
176
     0
 90
        1
176
     0
 40
0.0
176
     0
 90
        0
176
     0
290
     0
176
     0
290
     1
176
     0
290
     1
176
     0
290
     0
176
     0
290
     0
176
     0
290
     0
176
     0
290
     0
176
     0
290
     0
176
     0
290
     0
176
     0
 90
       50
176
     0
 40
0.0
176
     0
 40
1.0
176
     0
 90
        0
176
     0
 62
    18
420
        0
176
     0
 90
       50
176
     0
 90
        3
176
     0
 62
     5
420
      255
176
     0
290
     0
176
     0
 90
       50
176
     0
 90
       50
176
     0
 90
       50
176
     0
290
     0
176
     0
 90
       50
176
     0
 62
   256
176
     0
 40
1.0
176
     0
 90
        2
176
     0
  1
strokes_ogs.tif
176
     0
290
     0
176
     0
 40
1.0
176
     0
 40
1.0
176
     0
  0
VISUALSTYLE
  5
38
102
{ACAD_REACTORS
330
2A
102
}
330
2A
100
AcDbVisualStyle
  2
Linepattern
 70
    14
177
     3
291
     1
 70
    58
 90
        2
176
     1
 90
        2
176
     1
 90
        0
176
     1
 90
        0
176
     1
 40
0.6
176
     1
 40
30.0
176
     1
 62
     7
420
 16777215
176
     1
 90
        1
176
     1
 90
        4
176
     1
 62
     7
176
     1
 62
   257
176
     1
 90
        7
176
     1
 90
        7
176
     1
 40
1.0
176
     1
 90
        8
176
     1
 62
     7
176
     1
 40
1.0
176
     1
 90
        1
176
     1
 90
        6
176
     1
 90
        2
176
     1
 62
     7
176
     1
 90
        5
176
     1
 90
        0
176
     1
 90
        0
176
     1
290
     0
176
     1
 90
        1
176
     1
 40
0.0
176
     1
 90
        0
176
     1
290
     0
176
     1
290
     1
176
     1
290
     1
176
     1
290
     0
176
     1
290
     0
176
     1
290
     0
176
     1
290
     0
176
     1
290
     0
176
     1
290
     0
176
     1
 90
       50
176
     1
 40
0.0
176
     1
 40
1.0
176
     1
 90
        0
176
     1
 62
    18
420
        0
176
     1
 90
       50
176
     1
 90
        3
176
     1
 62
     5
420
      255
176
     1
290
     0
176
     1
 90
       50
176
     1
 90
       50
176
     1
 90
       50
176
     1
290
     0
176
     1
 90
       50
176
     1
 62
   256
176
     0
 40
1.0
176
     0
 90
        2
176
     1
  1
strokes_ogs.tif
176
     1
290
     0
176
     1
 40
1.0
176
     1
 40
1.0
176
     1
  0
VISUALSTYLE
  5
3C
102
{ACAD_REACTORS
330
2A
102
}
330
2A
100
AcDbVisualStyle
  2
OverhangOff
 70
    21
177
     3
291
     1
 70
    58
 90
        2
176
     0
 90
        2
176
     0
 90
        0
176
     0
 90
        0
176
     0
 40
0.6
176
     0
 40
30.0
176
     0
 62
     7
420
 16777215
176
     0
 90
        1
176
     0
 90
        4
176
     0
 62
     7
176
     0
 62
   257
176
     0
 90
        1
176
     0
 90
        1
176
     0
 40
1.0
176
     0
 90
        9
176
     2
 62
     7
176
     0
 40
1.0
176
     0
 90
        1
176
     0
 90
        6
176
     0
 90
        2
176
     0
 62
     7
176
     0
 90
        5
176
     0
 90
        0
176
     0
 90
        0
176
     0
290
     0
176
     0
 90
        1
176
     0
 40
0.0
176
     0
 90
        0
176
     0
290
     0
176
     0
290
     1
176
     0
290
     1
176
     0
290
     0
176
     0
290
     0
176
     0
290
     0
176
     0
290
     0
176
     0
290
     0
176
     0
290
     0
176
     0
 90
       50
176
     0
 40
0.0
176
     0
 40
1.0
176
     0
 90
        0
176
     0
 62
    18
420
        0
176
     0
 90
       50
176
     0
 90
        3
176
     0
 62
     5
420
      255
176
     0
290
     0
176
     0
 90
       50
176
     0
 90
       50
176
     0
 90
       50
176
     0
290
     0
176
     0
 90
       50
176
     0
 62
   256
176
     0
 40
1.0
176
     0
 90
        2
176
     0
  1
strokes_ogs.tif
176
     0
290
     0
176
     0
 40
1.0
176
     0
 40
1.0
176
     0
  0
VISUALSTYLE
  5
33
102
{ACAD_REACTORS
330
2A
102
}
330
2A
100
AcDbVisualStyle
  2
Realistic
 70
     8
177
     3
291
     0
 70
    58
 90
        2
176
     1
 90
        3
176
     1
 90
        0
176
     1
 90
        2
176
     1
 40
0.6
176
     1
 40
30.0
176
     1
 62
     7
420
 16777215
176
     1
 90
        0
176
     1
 90
        0
176
     1
 62
     7
176
     1
 62
   257
176
     1
 90
        1
176
     1
 90
        1
176
     1
 40
1.0
176
     1
 90
        8
176
     1
 62
   257
176
     1
 40
1.0
176
     1
 90
        1
176
     1
 90
        6
176
     1
 90
        2
176
     1
 62
     7
176
     1
 90
        3
176
     1
 90
        0
176
     1
 90
        0
176
     1
290
     0
176
     1
 90
       13
176
     1
 40
0.0
176
     1
 90
        0
176
     1
290
     0
176
     1
290
     1
176
     1
290
     1
176
     1
290
     0
176
     1
290
     0
176
     1
290
     0
176
     1
290
     0
176
     1
290
     0
176
     1
290
     0
176
     1
 90
       50
176
     1
 40
0.0
176
     1
 40
1.0
176
     1
 90
        0
176
     1
 62
    18
420
        0
176
     1
 90
       50
176
     1
 90
        3
176
     1
 62
     5
420
      255
176
     1
290
     0
176
     1
 90
       50
176
     1
 90
       50
176
     1
 90
       50
176
     1
290
     0
176
     1
 90
       50
176
     1
 62
   256
176
     0
 40
1.0
176
     0
 90
        2
176
     1
  1
strokes_ogs.tif
176
     1
290
     0
176
     1
 40
1.0
176
     1
 40
1.0
176
     1
  0
VISUALSTYLE
  5
42
102
{ACAD_REACTORS
330
2A
102
}
330
2A
100
AcDbVisualStyle
  2
Shaded
 70
    27
177
     3
291
     0
 70
    58
 90
        2
176
     1
 90
        2
176
     1
 90
        1
176
     1
 90
        2
176
     1
 40
0.6
176
     1
 40
30.0
176
     1
 62
     7
420
 16777215
176
     1
 90
        0
176
     1
 90
        4
176
     1
 62
     7
176
     1
 62
   257
176
     1
 90
        1
176
     1
 90
        1
176
     1
 40
1.0
176
     1
 90
        8
176
     1
 62
   257
176
     1
 40
1.0
176
     1
 90
        1
176
     1
 90
        6
176
     1
 90
        2
176
     1
 62
     8
420
  7895160
176
     1
 90
        3
176
     1
 90
        0
176
     1
 90
        0
176
     1
290
     0
176
     1
 90
        5
176
     1
 40
0.0
176
     1
 90
        0
176
     1
290
     0
176
     1
290
     1
176
     1
290
     1
176
     1
290
     0
176
     1
290
     0
176
     1
290
     0
176
     1
290
     0
176
     1
290
     0
176
     1
290
     0
176
     1
 90
       50
176
     1
 40
0.0
176
     1
 40
1.0
176
     1
 90
        0
176
     1
 62
    18
420
        0
176
     1
 90
       50
176
     1
 90
        3
176
     1
 62
     5
420
      255
176
     1
290
     0
176
     1
 90
       50
176
     1
 90
       50
176
     1
 90
       50
176
     1
290
     0
176
     1
 90
       50
176
     1
 62
   256
176
     0
 40
1.0
176
     0
 90
        2
176
     1
  1
strokes_ogs.tif
176
     1
290
     0
176
     1
 40
1.0
176
     1
 40
1.0
176
     1
  0
VISUALSTYLE
  5
41
102
{ACAD_REACTORS
330
2A
102
}
330
2A
100
AcDbVisualStyle
  2
Shaded with edges
 70
    26
177
     3
291
     0
 70
    58
 90
        2
176
     1
 90
        2
176
     1
 90
        1
176
     1
 90
        2
176
     1
 40
0.6
176
     1
 40
30.0
176
     1
 62
     7
420
 16777215
176
     1
 90
        1
176
     1
 90
       10
176
     1
 62
     7
176
     1
 62
   257
176
     1
 90
        2
176
     1
 90
        1
176
     1
 40
1.0
176
     1
 90
        8
176
     1
 62
   257
176
     1
 40
1.0
176
     1
 90
        1
176
     1
 90
        6
176
     1
 90
        2
176
     1
 62
     7
176
     1
 90
        3
176
     1
 90
        0
176
     1
 90
        0
176
     1
290
     0
176
     1
 90
        5
176
     1
 40
0.0
176
     1
 90
        0
176
     1
290
     0
176
     1
290
     1
176
     1
290
     1
176
     1
290
     0
176
     1
290
     0
176
     1
290
     0
176
     1
290
     0
176
     1
290
     0
176
     1
290
     0
176
     1
 90
       50
176
     1
 40
0.0
176
     1
 40
1.0
176
     1
 90
        0
176
     1
 62
    18
420
        0
176
     1
 90
       50
176
     1
 90
        3
176
     1
 62
     5
420
      255
176
     1
290
     0
176
     1
 90
       50
176
     1
 90
       50
176
     1
 90
       50
176
     1
290
     0
176
     1
 90
       50
176
     1
 62
   256
176
     0
 40
1.0
176
     0
 90
        2
176
     1
  1
strokes_ogs.tif
176
     1
290
     0
176
     1
 40
1.0
176
     1
 40
1.0
176
     1
  0
VISUALSTYLE
  5
3E
102
{ACAD_REACTORS
330
2A
102
}
330
2A
100
AcDbVisualStyle
  2
Shades of Gray
 70
    23
177
     3
291
     0
 70
    58
 90
        2
176
     1
 90
        2
176
     1
 90
        3
176
     1
 90
        0
176
     1
 40
0.6
176
     1
 40
30.0
176
     1
 62
     7
420
 16777215
176
     1
 90
        2
176
     1
 90
        2
176
     1
 62
     7
176
     1
 62
     7
176
     1
 90
        1
176
     1
 90
        1
176
     1
 40
40.0
176
     1
 90
        8
176
     1
 62
     7
176
     1
 40
1.0
176
     1
 90
        1
176
     1
 90
        6
176
     1
 90
        2
176
     1
 62
     7
176
     1
 90
        3
176
     1
 90
        0
176
     1
 90
        0
176
     1
290
     0
176
     1
 90
        1
176
     1
 40
0.0
176
     1
 90
        0
176
     1
290
     0
176
     1
290
     1
176
     1
290
     1
176
     1
290
     0
176
     1
290
     0
176
     1
290
     0
176
     1
290
     0
176
     1
290
     0
176
     1
290
     0
176
     1
 90
       50
176
     1
 40
0.0
176
     1
 40
1.0
176
     1
 90
        0
176
     1
 62
    18
420
        0
176
     1
 90
       50
176
     1
 90
        3
176
     1
 62
     5
420
      255
176
     1
290
     0
176
     1
 90
       50
176
     1
 90
       50
176
     1
 90
       50
176
     1
290
     0
176
     1
 90
       50
176
     1
 62
   256
176
     0
 40
1.0
176
     0
 90
        2
176
     1
  1
strokes_ogs.tif
176
     1
290
     0
176
     1
 40
1.0
176
     1
 40
1.0
176
     1
  0
VISUALSTYLE
  5
3F
102
{ACAD_REACTORS
330
2A
102
}
330
2A
100
AcDbVisualStyle
  2
Sketchy
 70
    24
177
     3
291
     0
 70
    58
 90
        1
176
     1
 90
        2
176
     1
 90
        2
176
     1
 90
        0
176
     1
 40
0.6
176
     1
 40
30.0
176
     1
 62
     7
420
 16777215
176
     1
 90
        2
176
     1
 90
        2
176
     1
 62
     7
176
     1
 62
     7
176
     1
 90
        1
176
     1
 90
        1
176
     1
 40
40.0
176
     1
 90
       11
176
     1
 62
     7
176
     1
 40
1.0
176
     1
 90
        1
176
     1
 90
        6
176
     1
 90
        2
176
     1
 62
     7
176
     1
 90
        6
176
     1
 90
        0
176
     1
 90
        0
176
     1
290
     0
176
     1
 90
        1
176
     1
 40
0.0
176
     1
 90
        0
176
     1
290
     0
176
     1
290
     1
176
     1
290
     1
176
     1
290
     0
176
     1
290
     0
176
     1
290
     0
176
     1
290
     0
176
     1
290
     0
176
     1
290
     0
176
     1
 90
       50
176
     1
 40
0.0
176
     1
 40
1.0
176
     1
 90
        0
176
     1
 62
    18
420
        0
176
     1
 90
       50
176
     1
 90
        3
176
     1
 62
     5
420
      255
176
     1
290
     0
176
     1
 90
       50
176
     1
 90
       50
176
     1
 90
       50
176
     1
290
     0
176
     1
 90
       50
176
     1
 62
   256
176
     0
 40
1.0
176
     0
 90
        2
176
     1
  1
strokes_ogs.tif
176
     1
290
     0
176
     1
 40
1.0
176
     1
 40
1.0
176
     1
  0
VISUALSTYLE
  5
37
102
{ACAD_REACTORS
330
2A
102
}
330
2A
100
AcDbVisualStyle
  2
Thicken
 70
    13
177
     3
291
     1
 70
    58
 90
        2
176
     1
 90
        2
176
     1
 90
        0
176
     1
 90
        0
176
     1
 40
0.6
176
     1
 40
30.0
176
     1
 62
     7
420
 16777215
176
     1
 90
        1
176
     1
 90
        4
176
     1
 62
     7
176
     1
 62
   257
176
     1
 90
        1
176
     1
 90
        1
176
     1
 40
1.0
176
     1
 90
       12
176
     1
 62
     7
176
     1
 40
1.0
176
     1
 90
        1
176
     1
 90
        6
176
     1
 90
        2
176
     1
 62
     7
176
     1
 90
        5
176
     1
 90
        0
176
     1
 90
        0
176
     1
290
     0
176
     1
 90
        1
176
     1
 40
0.0
176
     1
 90
        0
176
     1
290
     0
176
     1
290
     1
176
     1
290
     1
176
     1
290
     0
176
     1
290
     0
176
     1
290
     0
176
     1
290
     0
176
     1
290
     0
176
     1
290
     0
176
     1
 90
       50
176
     1
 40
0.0
176
     1
 40
1.0
176
     1
 90
        0
176
     1
 62
    18
420
        0
176
     1
 90
       50
176
     1
 90
        3
176
     1
 62
     5
420
      255
176
     1
290
     0
176
     1
 90
       50
176
     1
 90
       50
176
     1
 90
       50
176
     1
290
     0
176
     1
 90
       50
176
     1
 62
   256
176
     0
 40
1.0
176
     0
 90
        2
176
     1
  1
strokes_ogs.tif
176
     1
290
     0
176
     1
 40
1.0
176
     1
 40
1.0
176
     1
  0
VISUALSTYLE
  5
30
102
{ACAD_REACTORS
330
2A
102
}
330
2A
100
AcDbVisualStyle
  2
Wireframe
 70
     5
177
     3
291
     0
 70
    58
 90
        0
176
     1
 90
        2
176
     1
 90
        0
176
     1
 90
        0
176
     1
 40
0.6
176
     1
 40
30.0
176
     1
 62
     7
420
 16777215
176
     1
 90
        1
176
     1
 90
        4
176
     1
 62
     7
176
     1
 62
   257
176
     1
 90
        1
176
     1
 90
        1
176
     1
 40
1.0
176
     1
 90
        0
176
     1
 62
   257
176
     1
 40
1.0
176
     1
 90
        1
176
     1
 90
        6
176
     1
 90
        2
176
     1
 62
     7
176
     1
 90
        3
176
     1
 90
        0
176
     1
 90
        0
176
     1
290
     0
176
     1
 90
        1
176
     1
 40
0.0
176
     1
 90
        0
176
     1
290
     0
176
     1
290
     1
176
     1
290
     1
176
     1
290
     0
176
     1
290
     0
176
     1
290
     0
176
     1
290
     0
176
     1
290
     0
176
     1
290
     0
176
     1
 90
       50
176
     1
 40
0.0
176
     1
 40
1.0
176
     1
 90
        0
176
     1
 62
    18
420
        0
176
     1
 90
       50
176
     1
 90
        3
176
     1
 62
     5
420
      255
176
     1
290
     0
176
     1
 90
       50
176
     1
 90
       50
176
     1
 90
       50
176
     1
290
     0
176
     1
 90
       50
176
     1
 62
   256
176
     0
 40
1.0
176
     0
 90
        2
176
     1
  1
strokes_ogs.tif
176
     1
290
     0
176
     1
 40
1.0
176
     1
 40
1.0
176
     1
  0
VISUALSTYLE
  5
40
102
{ACAD_REACTORS
330
2A
102
}
330
2A
100
AcDbVisualStyle
  2
X-Ray
 70
    25
177
     3
291
     0
 70
    58
 90
        2
176
     1
 90
        2
176
     1
 90
        1
176
     1
 90
        1
176
     1
 40
0.5
176
     1
 40
30.0
176
     1
 62
     7
420
 16777215
176
     1
 90
        1
176
     1
 90
        0
176
     1
 62
     7
176
     1
 62
   257
176
     1
 90
        1
176
     1
 90
        1
176
     1
 40
1.0
176
     1
 90
        8
176
     1
 62
     7
176
     1
 40
1.0
176
     1
 90
        1
176
     1
 90
        6
176
     1
 90
        2
176
     1
 62
     7
176
     1
 90
        3
176
     1
 90
        0
176
     1
 90
        0
176
     1
290
     0
176
     1
 90
       13
176
     1
 40
0.0
176
     1
 90
        0
176
     1
290
     0
176
     1
290
     1
176
     1
290
     1
176
     1
290
     0
176
     1
290
     0
176
     1
290
     0
176
     1
290
     0
176
     1
290
     0
176
     1
290
     0
176
     1
 90
       50
176
     1
 40
0.0
176
     1
 40
1.0
176
     1
 90
        0
176
     1
 62
    18
420
        0
176
     1
 90
       50
176
     1
 90
        3
176
     1
 62
     5
420
      255
176
     1
290
     0
176
     1
 90
       50
176
     1
 90
       50
176
     1
 90
       50
176
     1
290
     0
176
     1
 90
       50
176
     1
 62
   256
176
     0
 40
1.0
176
     0
 90
        2
176
     1
  1
strokes_ogs.tif
176
     1
290
     0
176
     1
 40
1.0
176
     1
 40
1.0
176
     1
  0
DICTIONARYVAR
  5
92
102
{ACAD_REACTORS
330
91
102
}
330
91
100
DictionaryVariables
280
     0
  1
1:1
  0
DICTIONARYVAR
  5
9A
102
{ACAD_REACTORS
330
91
102
}
330
91
100
DictionaryVariables
280
     0
  1
3.500000
  0
DICTIONARYVAR
  5
9B
102
{ACAD_REACTORS
330
91
102
}
330
91
100
DictionaryVariables
280
     0
  1
acadiso.lin
  0
DICTIONARYVAR
  5
97
102
{ACAD_REACTORS
330
91
102
}
330
91
100
DictionaryVariables
280
     0
  1
Standard
  0
DICTIONARYVAR
  5
96
102
{ACAD_REACTORS
330
91
102
}
330
91
100
DictionaryVariables
280
     0
  1
Standard
  0
DICTIONARY
  5
93
330
5A
100
AcDbDictionary
280
     1
281
     1
  3
ACAD_ROUNDTRIP_2008_TABLESTYLE_CELLSTYLEMAP
360
94
  0
CELLSTYLEMAP
  5
94
102
{ACAD_REACTORS
330
93
102
}
330
93
100
AcDbCellStyleMap
 90
        3
300
CELLSTYLE
  1
TABLEFORMAT_BEGIN
 90
        5
170
     1
 91
        0
 92
    32768
 62
   257
 93
        1
300
CONTENTFORMAT
  1
CONTENTFORMAT_BEGIN
 90
        0
 91
        0
 92
        4
 93
        0
300

 40
0.0
140
1.0
 94
        5
 62
     0
340
11
144
6.0
309
CONTENTFORMAT_END
171
     1
301
MARGIN
  1
CELLMARGIN_BEGIN
 40
1.5
 40
1.5
 40
1.5
 40
1.5
 40
1.5
 40
1.5
309
CELLMARGIN_END
 94
        6
 95
        1
302
GRIDFORMAT
  1
GRIDFORMAT_BEGIN
 90
        0
 91
        1
 62
     0
 92
       -2
340
14
 93
        0
 40
0.045
309
GRIDFORMAT_END
 95
        2
302
GRIDFORMAT
  1
GRIDFORMAT_BEGIN
 90
        0
 91
        1
 62
     0
 92
       -2
340
14
 93
        0
 40
0.045
309
GRIDFORMAT_END
 95
        4
302
GRIDFORMAT
  1
GRIDFORMAT_BEGIN
 90
        0
 91
        1
 62
     0
 92
       -2
340
14
 93
        0
 40
0.045
309
GRIDFORMAT_END
 95
        8
302
GRIDFORMAT
  1
GRIDFORMAT_BEGIN
 90
        0
 91
        1
 62
     0
 92
       -2
340
14
 93
        0
 40
0.045
309
GRIDFORMAT_END
 95
       16
302
GRIDFORMAT
  1
GRIDFORMAT_BEGIN
 90
        0
 91
        1
 62
     0
 92
       -2
340
14
 93
        0
 40
0.045
309
GRIDFORMAT_END
 95
       32
302
GRIDFORMAT
  1
GRIDFORMAT_BEGIN
 90
        0
 91
        1
 62
     0
 92
       -2
340
14
 93
        0
 40
0.045
309
GRIDFORMAT_END
309
TABLEFORMAT_END
  1
CELLSTYLE_BEGIN
 90
        1
 91
        1
300
_TITLE
309
CELLSTYLE_END
300
CELLSTYLE
  1
TABLEFORMAT_BEGIN
 90
        5
170
     1
 91
        0
 92
        0
 62
   257
 93
        1
300
CONTENTFORMAT
  1
CONTENTFORMAT_BEGIN
 90
        0
 91
        0
 92
        4
 93
        0
300

 40
0.0
140
1.0
 94
        5
 62
     0
340
11
144
4.5
309
CONTENTFORMAT_END
171
     1
301
MARGIN
  1
CELLMARGIN_BEGIN
 40
1.5
 40
1.5
 40
1.5
 40
1.5
 40
1.5
 40
1.5
309
CELLMARGIN_END
 94
        6
 95
        1
302
GRIDFORMAT
  1
GRIDFORMAT_BEGIN
 90
        0
 91
        1
 62
     0
 92
       -2
340
14
 93
        0
 40
0.045
309
GRIDFORMAT_END
 95
        2
302
GRIDFORMAT
  1
GRIDFORMAT_BEGIN
 90
        0
 91
        1
 62
     0
 92
       -2
340
14
 93
        0
 40
0.045
309
GRIDFORMAT_END
 95
        4
302
GRIDFORMAT
  1
GRIDFORMAT_BEGIN
 90
        0
 91
        1
 62
     0
 92
       -2
340
14
 93
        0
 40
0.045
309
GRIDFORMAT_END
 95
        8
302
GRIDFORMAT
  1
GRIDFORMAT_BEGIN
 90
        0
 91
        1
 62
     0
 92
       -2
340
14
 93
        0
 40
0.045
309
GRIDFORMAT_END
 95
       16
302
GRIDFORMAT
  1
GRIDFORMAT_BEGIN
 90
        0
 91
        1
 62
     0
 92
       -2
340
14
 93
        0
 40
0.045
309
GRIDFORMAT_END
 95
       32
302
GRIDFORMAT
  1
GRIDFORMAT_BEGIN
 90
        0
 91
        1
 62
     0
 92
       -2
340
14
 93
        0
 40
0.045
309
GRIDFORMAT_END
309
TABLEFORMAT_END
  1
CELLSTYLE_BEGIN
 90
        2
 91
        1
300
_HEADER
309
CELLSTYLE_END
300
CELLSTYLE
  1
TABLEFORMAT_BEGIN
 90
        5
170
     1
 91
        0
 92
        0
 62
   257
 93
        1
300
CONTENTFORMAT
  1
CONTENTFORMAT_BEGIN
 90
        0
 91
        0
 92
        4
 93
        0
300

 40
0.0
140
1.0
 94
        2
 62
     0
340
11
144
4.5
309
CONTENTFORMAT_END
171
     1
301
MARGIN
  1
CELLMARGIN_BEGIN
 40
1.5
 40
1.5
 40
1.5
 40
1.5
 40
1.5
 40
1.5
309
CELLMARGIN_END
 94
        6
 95
        1
302
GRIDFORMAT
  1
GRIDFORMAT_BEGIN
 90
        0
 91
        1
 62
     0
 92
       -2
340
14
 93
        0
 40
0.045
309
GRIDFORMAT_END
 95
        2
302
GRIDFORMAT
  1
GRIDFORMAT_BEGIN
 90
        0
 91
        1
 62
     0
 92
       -2
340
14
 93
        0
 40
0.045
309
GRIDFORMAT_END
 95
        4
302
GRIDFORMAT
  1
GRIDFORMAT_BEGIN
 90
        0
 91
        1
 62
     0
 92
       -2
340
14
 93
        0
 40
0.045
309
GRIDFORMAT_END
 95
        8
302
GRIDFORMAT
  1
GRIDFORMAT_BEGIN
 90
        0
 91
        1
 62
     0
 92
       -2
340
14
 93
        0
 40
0.045
309
GRIDFORMAT_END
 95
       16
302
GRIDFORMAT
  1
GRIDFORMAT_BEGIN
 90
        0
 91
        1
 62
     0
 92
       -2
340
14
 93
        0
 40
0.045
309
GRIDFORMAT_END
 95
       32
302
GRIDFORMAT
  1
GRIDFORMAT_BEGIN
 90
        0
 91
        1
 62
     0
 92
       -2
340
14
 93
        0
 40
0.045
309
GRIDFORMAT_END
309
TABLEFORMAT_END
  1
CELLSTYLE_BEGIN
 90
        3
 91
        2
300
_DATA
309
CELLSTYLE_END
  0
ENDSEC
  0
EOF
