  0
SECTION
  2
HEADER
  9
$ACADVER
  1
AC1027
  9
$ACADMAINTVER
 70
   105
  9
$DWGCODEPAGE
  3
ANSI_932
  9
$LASTSAVEDBY
  1
a.yasuda
  9
$REQUIREDVERSIONS
160
                 0
  9
$INSBASE
 10
0.0
 20
0.0
 30
0.0
  9
$EXTMIN
 10
0.0
 20
0.0
 30
0.0
  9
$EXTMAX
 10
302.9997823349792
 20
216.0016055409748
 30
0.0
  9
$LIMMIN
 10
0.0
 20
0.0
  9
$LIMMAX
 10
302.9997823349792
 20
216.0016055409748
  9
$ORTHOMODE
 70
     0
  9
$REGENMODE
 70
     1
  9
$FILLMODE
 70
     1
  9
$QTEXTMODE
 70
     0
  9
$MIRRTEXT
 70
     1
  9
$LTSCALE
 40
1.0
  9
$ATTMODE
 70
     1
  9
$TEXTSIZE
 40
2.5
  9
$TRACEWID
 40
1.0
  9
$TEXTSTYLE
  7
Standard
  9
$CLAYER
  8
0
  9
$CELTYPE
  6
ByLayer
  9
$CECOLOR
 62
   256
  9
$CELTSCALE
 40
1.0
  9
$DISPSILH
 70
     0
  9
$DIMSCALE
 40
1.0
  9
$DIMASZ
 40
2.5
  9
$DIMEXO
 40
0.625
  9
$DIMDLI
 40
3.75
  9
$DIMRND
 40
0.0
  9
$DIMDLE
 40
0.0
  9
$DIMEXE
 40
1.25
  9
$DIMTP
 40
0.0
  9
$DIMTM
 40
0.0
  9
$DIMTXT
 40
2.5
  9
$DIMCEN
 40
2.5
  9
$DIMTSZ
 40
0.0
  9
$DIMTOL
 70
     0
  9
$DIMLIM
 70
     0
  9
$DIMTIH
 70
     0
  9
$DIMTOH
 70
     0
  9
$DIMSE1
 70
     0
  9
$DIMSE2
 70
     0
  9
$DIMTAD
 70
     1
  9
$DIMZIN
 70
     8
  9
$DIMBLK
  1

  9
$DIMASO
 70
     1
  9
$DIMSHO
 70
     1
  9
$DIMPOST
  1

  9
$DIMAPOST
  1

  9
$DIMALT
 70
     0
  9
$DIMALTD
 70
     3
  9
$DIMALTF
 40
0.03937007874016
  9
$DIMLFAC
 40
1.0
  9
$DIMTOFL
 70
     1
  9
$DIMTVP
 40
0.0
  9
$DIMTIX
 70
     0
  9
$DIMSOXD
 70
     0
  9
$DIMSAH
 70
     0
  9
$DIMBLK1
  1

  9
$DIMBLK2
  1

  9
$DIMSTYLE
  2
ISO-25
  9
$DIMCLRD
 70
     0
  9
$DIMCLRE
 70
     0
  9
$DIMCLRT
 70
     0
  9
$DIMTFAC
 40
1.0
  9
$DIMGAP
 40
0.625
  9
$DIMJUST
 70
     0
  9
$DIMSD1
 70
     0
  9
$DIMSD2
 70
     0
  9
$DIMTOLJ
 70
     0
  9
$DIMTZIN
 70
     8
  9
$DIMALTZ
 70
     0
  9
$DIMALTTZ
 70
     0
  9
$DIMUPT
 70
     0
  9
$DIMDEC
 70
     2
  9
$DIMTDEC
 70
     2
  9
$DIMALTU
 70
     2
  9
$DIMALTTD
 70
     3
  9
$DIMTXSTY
  7
Standard
  9
$DIMAUNIT
 70
     0
  9
$DIMADEC
 70
     0
  9
$DIMALTRND
 40
0.0
  9
$DIMAZIN
 70
     0
  9
$DIMDSEP
 70
    44
  9
$DIMATFIT
 70
     3
  9
$DIMFRAC
 70
     0
  9
$DIMLDRBLK
  1

  9
$DIMLUNIT
 70
     2
  9
$DIMLWD
 70
    -2
  9
$DIMLWE
 70
    -2
  9
$DIMTMOVE
 70
     0
  9
$DIMFXL
 40
1.0
  9
$DIMFXLON
 70
     0
  9
$DIMJOGANG
 40
0.7853981633974483
  9
$DIMTFILL
 70
     0
  9
$DIMTFILLCLR
 70
     0
  9
$DIMARCSYM
 70
     0
  9
$DIMLTYPE
  6

  9
$DIMLTEX1
  6

  9
$DIMLTEX2
  6

  9
$DIMTXTDIRECTION
 70
     0
  9
$LUNITS
 70
     2
  9
$LUPREC
 70
     4
  9
$SKETCHINC
 40
1.0
  9
$FILLETRAD
 40
0.0
  9
$AUNITS
 70
     0
  9
$AUPREC
 70
     0
  9
$MENU
  1
.
  9
$ELEVATION
 40
0.0
  9
$PELEVATION
 40
0.0
  9
$THICKNESS
 40
0.0
  9
$LIMCHECK
 70
     0
  9
$CHAMFERA
 40
0.0
  9
$CHAMFERB
 40
0.0
  9
$CHAMFERC
 40
0.0
  9
$CHAMFERD
 40
0.0
  9
$SKPOLY
 70
     0
  9
$TDCREATE
 40
2459866.620523449
  9
$TDUCREATE
 40
2459866.245523449
  9
$TDUPDATE
 40
2459866.620523496
  9
$TDUUPDATE
 40
2459866.245523496
  9
$TDINDWG
 40
0.0000000116
  9
$TDUSRTIMER
 40
0.0000000116
  9
$USRTIMER
 70
     1
  9
$ANGBASE
 50
0.0
  9
$ANGDIR
 70
     0
  9
$PDMODE
 70
     0
  9
$PDSIZE
 40
0.0
  9
$PLINEWID
 40
0.0
  9
$SPLFRAME
 70
     0
  9
$SPLINETYPE
 70
     6
  9
$SPLINESEGS
 70
     8
  9
$HANDSEED
  5
A1
  9
$SURFTAB1
 70
     6
  9
$SURFTAB2
 70
     6
  9
$SURFTYPE
 70
     6
  9
$SURFU
 70
     6
  9
$SURFV
 70
     6
  9
$UCSBASE
  2

  9
$UCSNAME
  2

  9
$UCSORG
 10
0.0
 20
0.0
 30
0.0
  9
$UCSXDIR
 10
1.0
 20
0.0
 30
0.0
  9
$UCSYDIR
 10
0.0
 20
1.0
 30
0.0
  9
$UCSORTHOREF
  2

  9
$UCSORTHOVIEW
 70
     0
  9
$UCSORGTOP
 10
0.0
 20
0.0
 30
0.0
  9
$UCSORGBOTTOM
 10
0.0
 20
0.0
 30
0.0
  9
$UCSORGLEFT
 10
0.0
 20
0.0
 30
0.0
  9
$UCSORGRIGHT
 10
0.0
 20
0.0
 30
0.0
  9
$UCSORGFRONT
 10
0.0
 20
0.0
 30
0.0
  9
$UCSORGBACK
 10
0.0
 20
0.0
 30
0.0
  9
$PUCSBASE
  2

  9
$PUCSNAME
  2

  9
$PUCSORG
 10
0.0
 20
0.0
 30
0.0
  9
$PUCSXDIR
 10
1.0
 20
0.0
 30
0.0
  9
$PUCSYDIR
 10
0.0
 20
1.0
 30
0.0
  9
$PUCSORTHOREF
  2

  9
$PUCSORTHOVIEW
 70
     0
  9
$PUCSORGTOP
 10
0.0
 20
0.0
 30
0.0
  9
$PUCSORGBOTTOM
 10
0.0
 20
0.0
 30
0.0
  9
$PUCSORGLEFT
 10
0.0
 20
0.0
 30
0.0
  9
$PUCSORGRIGHT
 10
0.0
 20
0.0
 30
0.0
  9
$PUCSORGFRONT
 10
0.0
 20
0.0
 30
0.0
  9
$PUCSORGBACK
 10
0.0
 20
0.0
 30
0.0
  9
$USERI1
 70
     0
  9
$USERI2
 70
     0
  9
$USERI3
 70
     0
  9
$USERI4
 70
     0
  9
$USERI5
 70
     0
  9
$USERR1
 40
0.0
  9
$USERR2
 40
0.0
  9
$USERR3
 40
0.0
  9
$USERR4
 40
0.0
  9
$USERR5
 40
0.0
  9
$WORLDVIEW
 70
     1
  9
$SHADEDGE
 70
     3
  9
$SHADEDIF
 70
    70
  9
$TILEMODE
 70
     1
  9
$MAXACTVP
 70
    64
  9
$PINSBASE
 10
0.0
 20
0.0
 30
0.0
  9
$PLIMCHECK
 70
     0
  9
$PEXTMIN
 10
1.000000000000000E+20
 20
1.000000000000000E+20
 30
1.000000000000000E+20
  9
$PEXTMAX
 10
-1.000000000000000E+20
 20
-1.000000000000000E+20
 30
-1.000000000000000E+20
  9
$PLIMMIN
 10
0.0
 20
0.0
  9
$PLIMMAX
 10
420.0
 20
297.0
  9
$UNITMODE
 70
     0
  9
$VISRETAIN
 70
     1
  9
$PLINEGEN
 70
     0
  9
$PSLTSCALE
 70
     1
  9
$TREEDEPTH
 70
  3020
  9
$CMLSTYLE
  2
Standard
  9
$CMLJUST
 70
     0
  9
$CMLSCALE
 40
20.0
  9
$PROXYGRAPHICS
 70
     1
  9
$MEASUREMENT
 70
     1
  9
$CELWEIGHT
370
    -1
  9
$ENDCAPS
280
     0
  9
$JOINSTYLE
280
     0
  9
$LWDISPLAY
290
     0
  9
$INSUNITS
 70
     4
  9
$HYPERLINKBASE
  1

  9
$STYLESHEET
  1

  9
$XEDIT
290
     1
  9
$CEPSNTYPE
380
     0
  9
$PSTYLEMODE
290
     1
  9
$FINGERPRINTGUID
  2
{01259f68-89f9-44ca-bce9-dc55df1c871f}
  9
$VERSIONGUID
  2
{FAEB1C32-E019-11D5-929B-00C0DF256EC4}
  9
$EXTNAMES
290
     1
  9
$PSVPSCALE
 40
0.0
  9
$OLESTARTUP
290
     0
  9
$SORTENTS
280
   127
  9
$INDEXCTL
280
     0
  9
$HIDETEXT
280
     1
  9
$XCLIPFRAME
280
     2
  9
$HALOGAP
280
     0
  9
$OBSCOLOR
 70
   257
  9
$OBSLTYPE
280
     0
  9
$INTERSECTIONDISPLAY
280
     0
  9
$INTERSECTIONCOLOR
 70
   257
  9
$DIMASSOC
280
     2
  9
$PROJECTNAME
  1

  9
$CAMERADISPLAY
290
     0
  9
$LENSLENGTH
 40
50.0
  9
$CAMERAHEIGHT
 40
0.0
  9
$STEPSPERSEC
 40
2.0
  9
$STEPSIZE
 40
6.0
  9
$3DDWFPREC
 40
2.0
  9
$PSOLWIDTH
 40
5.0
  9
$PSOLHEIGHT
 40
80.0
  9
$LOFTANG1
 40
1.570796326794897
  9
$LOFTANG2
 40
1.570796326794897
  9
$LOFTMAG1
 40
0.0
  9
$LOFTMAG2
 40
0.0
  9
$LOFTPARAM
 70
     7
  9
$LOFTNORMALS
280
     1
  9
$LATITUDE
 40
37.795
  9
$LONGITUDE
 40
-122.394
  9
$NORTHDIRECTION
 40
0.0
  9
$TIMEZONE
 70
 -8000
  9
$LIGHTGLYPHDISPLAY
280
     1
  9
$TILEMODELIGHTSYNCH
280
     1
  9
$CMATERIAL
347
44
  9
$SOLIDHIST
280
     0
  9
$SHOWHIST
280
     1
  9
$DWFFRAME
280
     2
  9
$DGNFRAME
280
     2
  9
$REALWORLDSCALE
290
     1
  9
$INTERFERECOLOR
 62
   256
  9
$CSHADOW
280
     0
  9
$SHADOWPLANELOCATION
 40
0.0
  0
ENDSEC
  0
SECTION
  2
CLASSES
  0
CLASS
  1
ACDBDICTIONARYWDFLT
  2
AcDbDictionaryWithDefault
  3
ObjectDBX Classes
 90
        0
 91
        3
280
     0
281
     0
  0
CLASS
  1
VISUALSTYLE
  2
AcDbVisualStyle
  3
ObjectDBX Classes
 90
     4095
 91
        3
280
     0
281
     0
  0
CLASS
  1
MATERIAL
  2
AcDbMaterial
  3
ObjectDBX Classes
 90
     1153
 91
        3
280
     0
281
     0
  0
CLASS
  1
SCALE
  2
AcDbScale
  3
ObjectDBX Classes
 90
     1153
 91
        3
280
     0
281
     0
  0
CLASS
  1
TABLESTYLE
  2
AcDbTableStyle
  3
ObjectDBX Classes
 90
     4095
 91
        3
280
     0
281
     0
  0
CLASS
  1
MLEADERSTYLE
  2
AcDbMLeaderStyle
  3
ACDB_MLEADERSTYLE_CLASS
 90
     4095
 91
        3
280
     0
281
     0
  0
CLASS
  1
SUN
  2
AcDbSun
  3
SCENEOE
 90
     1153
 91
        3
280
     0
281
     0
  0
CLASS
  1
DICTIONARYVAR
  2
AcDbDictionaryVar
  3
ObjectDBX Classes
 90
        0
 91
        3
280
     0
281
     0
  0
CLASS
  1
CELLSTYLEMAP
  2
AcDbCellStyleMap
  3
ObjectDBX Classes
 90
     1152
 91
        3
280
     0
281
     0
  0
ENDSEC
  0
SECTION
  2
TABLES
  0
TABLE
  2
VPORT
  5
8
330
0
100
AcDbSymbolTable
 70
     1
  0
VPORT
  5
29
330
8
100
AcDbSymbolTableRecord
100
AcDbViewportTableRecord
  2
*Active
 70
     0
 10
0.0
 20
0.0
 11
1.0
 21
1.0
 12
151.4998911674896
 22
108.0008027704874
 13
0.0
 23
0.0
 14
10.0
 24
10.0
 15
10.0
 25
10.0
 16
0.0
 26
0.0
 36
1.0
 17
0.0
 27
0.0
 37
0.0
 40
237.6017660950723
 41
1.402766343222857
 42
50.0
 43
0.0
 44
0.0
 50
0.0
 51
0.0
 71
     0
 72
 10000
 73
     1
 74
     3
 75
     0
 76
     0
 77
     0
 78
     0
281
     0
 65
     1
110
0.0
120
0.0
130
0.0
111
1.0
121
0.0
131
0.0
112
0.0
122
1.0
132
0.0
 79
     0
146
0.0
348
2F
 60
     3
 61
     5
292
     1
282
     1
141
0.0
142
0.0
 63
   250
361
5D
  0
ENDTAB
  0
TABLE
  2
LTYPE
  5
5
330
0
100
AcDbSymbolTable
 70
     2
  0
LTYPE
  5
14
330
5
100
AcDbSymbolTableRecord
100
AcDbLinetypeTableRecord
  2
ByBlock
 70
     0
  3

 72
    65
 73
     0
 40
0.0
  0
LTYPE
  5
15
330
5
100
AcDbSymbolTableRecord
100
AcDbLinetypeTableRecord
  2
ByLayer
 70
     0
  3

 72
    65
 73
     0
 40
0.0
  0
LTYPE
  5
16
330
5
100
AcDbSymbolTableRecord
100
AcDbLinetypeTableRecord
  2
Continuous
 70
     0
  3
Solid line
 72
    65
 73
     0
 40
0.0
  0
LTYPE
  5
5F
330
5
100
AcDbSymbolTableRecord
100
AcDbLinetypeTableRecord
  2
UserDefined01
 70
     0
  3
----------------                
 72
    65
 73
     2
 40
0.7055555449591743
 49
0.3527777724795871
 74
     0
 49
-0.3527777724795871
 74
     0
  0
ENDTAB
  0
TABLE
  2
LAYER
  5
2
330
0
100
AcDbSymbolTable
 70
     3
  0
LAYER
  5
10
330
2
100
AcDbSymbolTableRecord
100
AcDbLayerTableRecord
  2
0
 70
     0
 62
     7
  6
Continuous
370
    -3
390
F
347
46
348
0
  0
LAYER
  5
60
330
2
100
AcDbSymbolTableRecord
100
AcDbLayerTableRecord
  2
外枠
 70
     0
 62
     7
  6
Continuous
370
    -3
390
F
347
46
348
0
  0
LAYER
  5
61
330
2
100
AcDbSymbolTableRecord
100
AcDbLayerTableRecord
  2
ISS138金台
 70
     0
 62
     7
  6
Continuous
370
    -3
390
F
347
46
348
0
  0
ENDTAB
  0
TABLE
  2
STYLE
  5
3
330
0
100
AcDbSymbolTable
 70
     2
  0
STYLE
  5
11
330
3
100
AcDbSymbolTableRecord
100
AcDbTextStyleTableRecord
  2
Standard
 70
     0
 40
0.0
 41
1.0
 50
0.0
 71
     0
 42
2.5
  3

  4

  0
STYLE
  5
5E
330
3
100
AcDbSymbolTableRecord
100
AcDbTextStyleTableRecord
  2
MS Gothic
 70
     0
 40
1.0
 41
1.0
 50
0.0
 71
     0
 42
2.5
  3
msgothic.ttc
  4

1001
ACAD
1000
MS Gothic
1071
    32817
  0
ENDTAB
  0
TABLE
  2
VIEW
  5
6
330
0
100
AcDbSymbolTable
 70
     0
  0
ENDTAB
  0
TABLE
  2
UCS
  5
7
330
0
100
AcDbSymbolTable
 70
     0
  0
ENDTAB
  0
TABLE
  2
APPID
  5
9
330
0
100
AcDbSymbolTable
 70
     1
  0
APPID
  5
12
330
9
100
AcDbSymbolTableRecord
100
AcDbRegAppTableRecord
  2
ACAD
 70
     0
  0
ENDTAB
  0
TABLE
  2
DIMSTYLE
  5
A
330
0
100
AcDbSymbolTable
 70
     1
100
AcDbDimStyleTable
  0
DIMSTYLE
105
27
330
A
100
AcDbSymbolTableRecord
100
AcDbDimStyleTableRecord
  2
ISO-25
 70
     0
 41
2.5
 42
0.625
 43
3.75
 44
1.25
 73
     0
 74
     0
 77
     1
 78
     8
140
2.5
141
2.5
143
0.03937007874016
147
0.625
171
     3
172
     1
178
     0
271
     2
272
     2
274
     3
278
    44
283
     0
284
     8
340
11
  0
ENDTAB
  0
TABLE
  2
BLOCK_RECORD
  5
1
330
0
100
AcDbSymbolTable
 70
     1
  0
BLOCK_RECORD
  5
1F
330
1
100
AcDbSymbolTableRecord
100
AcDbBlockTableRecord
  2
*Model_Space
340
22
 70
     0
280
     1
281
     0
  0
BLOCK_RECORD
  5
1B
330
1
100
AcDbSymbolTableRecord
100
AcDbBlockTableRecord
  2
*Paper_Space
340
1E
 70
     0
280
     1
281
     0
  0
BLOCK_RECORD
  5
23
330
1
100
AcDbSymbolTableRecord
100
AcDbBlockTableRecord
  2
*Paper_Space0
340
26
 70
     0
280
     1
281
     0
  0
ENDTAB
  0
ENDSEC
  0
SECTION
  2
BLOCKS
  0
BLOCK
  5
20
330
1F
100
AcDbEntity
  8
0
100
AcDbBlockBegin
  2
*Model_Space
 70
     0
 10
0.0
 20
0.0
 30
0.0
  3
*Model_Space
  1

  0
ENDBLK
  5
21
330
1F
100
AcDbEntity
  8
0
100
AcDbBlockEnd
  0
BLOCK
  5
1C
330
1B
100
AcDbEntity
 67
     1
  8
0
100
AcDbBlockBegin
  2
*Paper_Space
 70
     0
 10
0.0
 20
0.0
 30
0.0
  3
*Paper_Space
  1

  0
ENDBLK
  5
1D
330
1B
100
AcDbEntity
 67
     1
  8
0
100
AcDbBlockEnd
  0
BLOCK
  5
24
330
23
100
AcDbEntity
  8
0
100
AcDbBlockBegin
  2
*Paper_Space0
 70
     0
 10
0.0
 20
0.0
 30
0.0
  3
*Paper_Space0
  1

  0
ENDBLK
  5
25
330
23
100
AcDbEntity
  8
0
100
AcDbBlockEnd
  0
ENDSEC
  0
SECTION
  2
ENTITIES
  0
LWPOLYLINE
  5
62
330
1F
100
AcDbEntity
  8
外枠
  6
Continuous
 62
   250
420
  2367521
370
   100
100
AcDbPolyline
 90
        5
 70
     0
 43
0.0
 10
281.9999662644599
 20
13.29407825637392
 10
20.99981607051935
 20
13.29407825637392
 10
20.99981607051935
 20
193.0018900389566
 10
281.9999662644599
 20
193.0018900389566
 10
281.9999662644599
 20
13.29407825637392
  0
LINE
  5
63
330
1F
100
AcDbEntity
  8
外枠
  6
Continuous
 62
   250
420
  2367521
370
    25
100
AcDbLine
 10
223.3097080177524
 20
174.0786160074276
 30
0.0
 11
281.9999232007669
 21
174.0786160074276
 31
0.0
  0
LINE
  5
64
330
1F
100
AcDbEntity
  8
外枠
  6
Continuous
 62
   250
420
  2367521
370
    25
100
AcDbLine
 10
223.3097080177524
 20
50.37109023844297
 30
0.0
 11
281.9999232007669
 21
50.37109023844297
 31
0.0
  0
LINE
  5
65
330
1F
100
AcDbEntity
  8
外枠
  6
Continuous
 62
   250
420
  2367521
370
    25
100
AcDbLine
 10
223.3097080177524
 20
36.25997933925949
 30
0.0
 11
281.9999232007669
 21
36.25997933925949
 31
0.0
  0
LINE
  5
66
330
1F
100
AcDbEntity
  8
外枠
  6
Continuous
 62
   250
420
  2367521
370
    50
100
AcDbLine
 10
223.0158413772006
 20
193.3637327187979
 30
0.0
 11
223.0158413772006
 21
13.29396655992039
 31
0.0
  0
TEXT
  5
67
330
1F
100
AcDbEntity
  8
外枠
  6
Continuous
 62
   250
420
  2367521
100
AcDbText
 10
224.7190965599536
 20
186.6888051931772
 30
0.0
 40
2.688166626294454
  1
品名：
 41
0.974166170756022
  7
MS Gothic
100
AcDbText
  0
TEXT
  5
68
330
1F
100
AcDbEntity
  8
外枠
  6
Continuous
 62
   250
420
  2367521
100
AcDbText
 10
224.7190965599536
 20
168.1080059455944
 30
0.0
 40
2.688166626294454
  1
仕様：
 41
0.9978878657023111
  7
MS Gothic
100
AcDbText
  0
TEXT
  5
69
330
1F
100
AcDbEntity
  8
外枠
  6
Continuous
 62
   250
420
  2367521
100
AcDbText
 10
224.7190965599536
 20
44.16660664327048
 30
0.0
 40
2.688166626294454
  1
縮尺：
 41
0.9939999262491861
  7
MS Gothic
100
AcDbText
  0
TEXT
  5
6A
330
1F
100
AcDbEntity
  8
外枠
  6
Continuous
 62
   250
420
  2367521
100
AcDbText
 10
250.2379519709696
 20
40.59738467878129
 30
0.0
 40
2.150533301035563
  1
1/1
 41
1.000003814697266
  7
MS Gothic
100
AcDbText
  0
TEXT
  5
6B
330
1F
100
AcDbEntity
  8
外枠
  6
Continuous
 62
   250
420
  2367521
100
AcDbText
 10
232.7757967427735
 20
181.9845273775436
 30
0.0
 40
2.688166626294454
  1
アドライン　FA-3(S)
 41
0.9897730777138157
  7
MS Gothic
100
AcDbText
  0
TEXT
  5
6C
330
1F
100
AcDbEntity
  8
外枠
  6
Continuous
 62
   250
420
  2367521
100
AcDbText
 10
226.1633020978884
 20
24.25683874973963
 30
0.0
 40
2.553758294979732
  1
ヤスダインテリアサプライ株式会社
 41
1.0194908945184
  7
MS Gothic
100
AcDbText
  0
TEXT
  5
6D
330
1F
100
AcDbEntity
  8
外枠
  6
Continuous
 62
   250
420
  2367521
100
AcDbText
 10
227.7635273953072
 20
161.7763665048245
 30
0.0
 40
2.150533301035563
  1
材質
 41
1.028502464294433
  7
MS Gothic
100
AcDbText
  0
TEXT
  5
6E
330
1F
100
AcDbEntity
  8
外枠
  6
Continuous
 62
   250
420
  2367521
100
AcDbText
 10
232.7757967427735
 20
156.199681315683
 30
0.0
 40
2.016124969720841
  1
アルミ押出形材（A6063S-T5）/
 41
1.030580357142857
  7
MS Gothic
100
AcDbText
  0
TEXT
  5
6F
330
1F
100
AcDbEntity
  8
外枠
  6
Continuous
 62
   250
420
  2367521
100
AcDbText
 10
232.7757967427735
 20
151.9663480459279
 30
0.0
 40
2.016124969720841
  1
シルバー仕上(アルマイト)
 41
1.052132924397786
  7
MS Gothic
100
AcDbText
  0
LWPOLYLINE
  5
70
330
1F
100
AcDbEntity
  8
ISS138金台
  6
Continuous
 62
   250
420
  2367521
370
    25
100
AcDbPolyline
 90
       77
 70
     0
 43
0.0
 10
131.1720194295978
 20
103.9726464656956
 10
125.1504555450164
 20
104.131045494214
 10
124.9719457718998
 20
103.9525357210975
 10
124.7842741981124
 20
104.1409178458182
 10
115.9722368413067
 20
104.372342131622
 10
115.9722368413067
 20
106.8728354615814
 10
116.2717448256323
 20
106.9726678677155
 10
116.272100101099
 20
106.9726678677155
 10
116.2925445893173
 20
106.9736906304226
 10
116.3123969517579
 20
106.9767373866974
 10
116.3315602951116
 20
106.9816574136146
 10
116.349926960146
 20
106.9883861156349
 10
116.3674108194755
 20
106.9968158335258
 10
116.3839149797908
 20
107.006828142132
 10
116.3993102500131
 20
107.0183261481442
 10
116.4135212686799
 20
107.0312344900998
 10
116.4264296106355
 20
107.0454132109969
 10
116.4379491484942
 20
107.0607977152961
 10
116.4479614571004
 20
107.0772588119184
 10
116.4563911749913
 20
107.0947103734782
 10
116.4631198770116
 20
107.1130447407429
 10
116.468050669852
 20
107.1321650204037
 10
116.4710866602036
 20
107.1519635532281
 10
116.4721201888339
 20
107.172343445907
 10
116.4721201888339
 20
107.172343445907
 10
116.4710866602036
 20
107.1927987000486
 10
116.4680614357753
 20
107.2126295306427
 10
116.4631198770116
 20
107.2318036399196
 10
116.4563911749913
 20
107.2501810708774
 10
116.4479614571004
 20
107.2676649302068
 10
116.4379491484942
 20
107.2841583245988
 10
116.4264296106355
 20
107.2995535948212
 10
116.4135212686799
 20
107.3137538475647
 10
116.3993102500131
 20
107.3266729554436
 10
116.3839149797908
 20
107.3381924933023
 10
116.3674215853987
 20
107.3482155678317
 10
116.3499377260693
 20
107.3566345197994
 10
116.3315602951116
 20
107.3633632218197
 10
116.3123969517579
 20
107.3682940146601
 10
116.2925445893173
 20
107.3713300050117
 10
116.272100101099
 20
107.372363533642
 10
115.9722368413067
 20
107.372363533642
 10
115.5632717154771
 20
107.3594659576095
 10
115.1661275733568
 20
107.3215806737547
 10
114.7827961107436
 20
107.2599888269421
 10
114.4152905552821
 20
107.1759392642667
 10
114.0656564323864
 20
107.0706915987466
 10
113.735863906008
 20
106.9454839115537
 10
113.4279369697146
 20
106.8015865816293
 10
113.1438780852275
 20
106.6402592219917
 10
112.8857220120375
 20
106.4627506797357
 10
112.6554389140963
 20
106.2703098019564
 10
112.4550635508947
 20
106.0642069675952
 10
112.286598384154
 20
105.8456802578237
 10
112.1520674074418
 20
105.6160108175067
 10
112.0534623165561
 20
105.3764259618927
 10
111.9927963391415
 20
105.128196069923
 10
111.9720827028424
 20
104.8725807546159
 10
111.9720827028424
 20
103.1725445829094
 10
115.9722368413067
 20
103.1725445829094
 10
131.9724765878507
 20
103.1725445829094
 10
131.9683532392527
 20
103.2543117698596
 10
131.9562092778465
 20
103.3337319855451
 10
131.9364753405615
 20
103.4104068908063
 10
131.9095605324805
 20
103.4839058487139
 10
131.8758524268398
 20
103.5538412860317
 10
131.8357601287223
 20
103.6198040976766
 10
131.7896712113644
 20
103.6813959444892
 10
131.7380055457721
 20
103.7382184873099
 10
131.6811614711049
 20
103.789873386979
 10
131.6195480924459
 20
103.8359515384137
 10
131.553542217108
 20
103.876033070608
 10
131.4835744820205
 20
103.9097411762486
 10
131.4100324604199
 20
103.9366559843297
 10
131.333325257389
 20
103.9563791556914
 10
131.2538512120874
 20
103.9685123511744
 10
131.1720194295978
 20
103.9726464656956
  0
LINE
  5
71
330
1F
100
AcDbEntity
  8
ISS138金台
  6
Continuous
 62
   250
420
  2367521
370
    13
100
AcDbLine
 10
111.972158064305
 20
108.8724119153833
 30
0.0
 11
111.972158064305
 21
113.8776188172091
 31
0.0
  0
LINE
  5
72
330
1F
100
AcDbEntity
  8
ISS138金台
  6
Continuous
 62
   250
420
  2367521
370
    13
100
AcDbLine
 10
116.4721201888339
 20
113.3705007692697
 30
0.0
 11
112.2222073973009
 21
113.3705007692697
 31
0.0
  0
LINE
  5
73
330
1F
100
AcDbEntity
  8
ISS138金台
  6
Continuous
 62
   250
420
  2367521
370
    13
100
AcDbLine
 10
116.4721201888339
 20
113.8776188172091
 30
0.0
 11
116.4721201888339
 21
108.8724119153833
 31
0.0
  0
LINE
  5
74
330
1F
100
AcDbEntity
  8
ISS138金台
  6
Continuous
 62
   250
420
  2367521
370
    13
100
AcDbLine
 10
111.972158064305
 20
102.1722395916934
 30
0.0
 11
111.972158064305
 21
92.22814387515326
 31
0.0
  0
LINE
  5
75
330
1F
100
AcDbEntity
  8
ISS138金台
  6
Continuous
 62
   250
420
  2367521
370
    13
100
AcDbLine
 10
131.9722935671558
 20
92.73543417786439
 30
0.0
 11
112.222024376606
 21
92.73543417786439
 31
0.0
  0
LINE
  5
76
330
1F
100
AcDbEntity
  8
ISS138金台
  6
Continuous
 62
   250
420
  2367521
370
    13
100
AcDbLine
 10
131.9722935671558
 20
102.1722395916934
 30
0.0
 11
131.9722935671558
 21
92.22814387515326
 31
0.0
  0
HATCH
  5
77
330
1F
100
AcDbEntity
  8
ISS138金台
  6
Continuous
 62
   250
420
  2367521
370
    13
100
AcDbHatch
 10
0.0
 20
0.0
 30
0.0
210
0.0
220
0.0
230
1.0
  2
SOLID
 70
     1
 71
     0
 91
        1
 92
        3
 72
     0
 73
     1
 93
       67
 10
111.972158064305
 20
113.1205590955061
 10
111.9976948342123
 20
113.121851006294
 10
112.0224887554165
 20
113.1256298453486
 10
112.0464321686854
 20
113.1317879534375
 10
112.0693743510937
 20
113.140196139482
 10
112.091207643409
 20
113.1507036805568
 10
112.1118028545526
 20
113.1632136833529
 10
112.1310307934457
 20
113.1775969567914
 10
112.1487622690095
 20
113.1937135438703
 10
112.1648896220116
 20
113.2114557853573
 10
112.1792621295269
 20
113.2306837242504
 10
112.1917828982462
 20
113.2512681694708
 10
112.2023012052442
 20
113.2731014617861
 10
112.2106986253655
 20
113.2960544101176
 10
112.2168567334544
 20
113.3199870574633
 10
112.220635572509
 20
113.3447917445907
 10
112.2219274832969
 20
113.370328514498
 10
112.2219274832969
 20
113.370328514498
 10
112.220635572509
 20
113.3959298799447
 10
112.2168567334544
 20
113.4207776307651
 10
112.2106986253655
 20
113.4447641077269
 10
112.2023012052442
 20
113.4677601197513
 10
112.1917721323229
 20
113.4896149439131
 10
112.1792728954501
 20
113.5102316869031
 10
112.1648896220116
 20
113.5294919235659
 10
112.1487622690095
 20
113.5472449309762
 10
112.1310307934457
 20
113.5633830499016
 10
112.1118028545526
 20
113.57776632334
 10
112.091207643409
 20
113.5902870920593
 10
112.0693743510937
 20
113.6008053990574
 10
112.0464214027622
 20
113.6092135851019
 10
112.0224887554165
 20
113.6153716931909
 10
111.9976948342123
 20
113.6191505322454
 10
111.972158064305
 20
113.6204424430333
 10
111.972158064305
 20
113.6204424430333
 10
111.9465782307048
 20
113.6191505322454
 10
111.9217197139612
 20
113.6153609272676
 10
111.8977547688458
 20
113.6092135851019
 10
111.8747910545911
 20
113.6008161649806
 10
111.8529469963525
 20
113.5902870920593
 10
111.8323517852089
 20
113.57776632334
 10
111.8131453781623
 20
113.5633830499016
 10
111.7954139025985
 20
113.5472449309762
 10
111.7793188473661
 20
113.5294919235659
 10
111.764957105774
 20
113.5102424528264
 10
111.7524686348245
 20
113.4896149439131
 10
111.7419718596729
 20
113.4677493538281
 10
111.733595971398
 20
113.4447641077269
 10
111.7274486292323
 20
113.4207776307651
 10
111.7236697901778
 20
113.3959298799447
 10
111.7223886453131
 20
113.370328514498
 10
111.7223886453131
 20
113.370328514498
 10
111.7236697901778
 20
113.3447809786675
 10
111.7274593951556
 20
113.3199978233865
 10
111.7335852054748
 20
113.2960544101176
 10
111.7419718596729
 20
113.2731014617861
 10
111.7524686348245
 20
113.251278935394
 10
111.764957105774
 20
113.2306837242504
 10
111.7793080814429
 20
113.2114557853573
 10
111.7954139025985
 20
113.1937135438703
 10
111.8131346122391
 20
113.1775969567914
 10
111.8323625511322
 20
113.1632136833529
 10
111.8529469963525
 20
113.1507036805568
 10
111.8747910545911
 20
113.1401853735588
 10
111.8977547688458
 20
113.1317879534375
 10
111.9217197139612
 20
113.1256298453486
 10
111.9465674647816
 20
113.121851006294
 97
        0
 75
     1
 76
     1
 98
        0
  0
LWPOLYLINE
  5
78
330
1F
100
AcDbEntity
  8
ISS138金台
  6
Continuous
 62
   250
420
  2367521
370
    13
100
AcDbPolyline
 90
       68
 70
     0
 43
0.0
 10
111.972158064305
 20
113.1205590955061
 10
111.9976948342123
 20
113.121851006294
 10
112.0224887554165
 20
113.1256298453486
 10
112.0464321686854
 20
113.1317879534375
 10
112.0693743510937
 20
113.140196139482
 10
112.091207643409
 20
113.1507036805568
 10
112.1118028545526
 20
113.1632136833529
 10
112.1310307934457
 20
113.1775969567914
 10
112.1487622690095
 20
113.1937135438703
 10
112.1648896220116
 20
113.2114557853573
 10
112.1792621295269
 20
113.2306837242504
 10
112.1917828982462
 20
113.2512681694708
 10
112.2023012052442
 20
113.2731014617861
 10
112.2106986253655
 20
113.2960544101176
 10
112.2168567334544
 20
113.3199870574633
 10
112.220635572509
 20
113.3447917445907
 10
112.2219274832969
 20
113.370328514498
 10
112.2219274832969
 20
113.370328514498
 10
112.220635572509
 20
113.3959298799447
 10
112.2168567334544
 20
113.4207776307651
 10
112.2106986253655
 20
113.4447641077269
 10
112.2023012052442
 20
113.4677601197513
 10
112.1917721323229
 20
113.4896149439131
 10
112.1792728954501
 20
113.5102316869031
 10
112.1648896220116
 20
113.5294919235659
 10
112.1487622690095
 20
113.5472449309762
 10
112.1310307934457
 20
113.5633830499016
 10
112.1118028545526
 20
113.57776632334
 10
112.091207643409
 20
113.5902870920593
 10
112.0693743510937
 20
113.6008053990574
 10
112.0464214027622
 20
113.6092135851019
 10
112.0224887554165
 20
113.6153716931909
 10
111.9976948342123
 20
113.6191505322454
 10
111.972158064305
 20
113.6204424430333
 10
111.972158064305
 20
113.6204424430333
 10
111.9465782307048
 20
113.6191505322454
 10
111.9217197139612
 20
113.6153609272676
 10
111.8977547688458
 20
113.6092135851019
 10
111.8747910545911
 20
113.6008161649806
 10
111.8529469963525
 20
113.5902870920593
 10
111.8323517852089
 20
113.57776632334
 10
111.8131453781623
 20
113.5633830499016
 10
111.7954139025985
 20
113.5472449309762
 10
111.7793188473661
 20
113.5294919235659
 10
111.764957105774
 20
113.5102424528264
 10
111.7524686348245
 20
113.4896149439131
 10
111.7419718596729
 20
113.4677493538281
 10
111.733595971398
 20
113.4447641077269
 10
111.7274486292323
 20
113.4207776307651
 10
111.7236697901778
 20
113.3959298799447
 10
111.7223886453131
 20
113.370328514498
 10
111.7223886453131
 20
113.370328514498
 10
111.7236697901778
 20
113.3447809786675
 10
111.7274593951556
 20
113.3199978233865
 10
111.7335852054748
 20
113.2960544101176
 10
111.7419718596729
 20
113.2731014617861
 10
111.7524686348245
 20
113.251278935394
 10
111.764957105774
 20
113.2306837242504
 10
111.7793080814429
 20
113.2114557853573
 10
111.7954139025985
 20
113.1937135438703
 10
111.8131346122391
 20
113.1775969567914
 10
111.8323625511322
 20
113.1632136833529
 10
111.8529469963525
 20
113.1507036805568
 10
111.8747910545911
 20
113.1401853735588
 10
111.8977547688458
 20
113.1317879534375
 10
111.9217197139612
 20
113.1256298453486
 10
111.9465674647816
 20
113.121851006294
 10
111.972158064305
 20
113.1205590955061
  0
HATCH
  5
79
330
1F
100
AcDbEntity
  8
ISS138金台
  6
Continuous
 62
   250
420
  2367521
370
    13
100
AcDbHatch
 10
0.0
 20
0.0
 30
0.0
210
0.0
220
0.0
230
1.0
  2
SOLID
 70
     1
 71
     0
 91
        1
 92
        3
 72
     0
 73
     1
 93
       67
 10
111.972158064305
 20
92.48598773656946
 10
111.9976948342123
 20
92.48726888143412
 10
112.0224887554165
 20
92.4910477204887
 10
112.0464321686854
 20
92.49718429673118
 10
112.0693743510937
 20
92.50556018500598
 10
112.091207643409
 20
92.51605696015758
 10
112.1118028545526
 20
92.52853466518394
 10
112.1310307934457
 20
92.54288564085275
 10
112.1487622690095
 20
92.55896993016196
 10
112.1648896220116
 20
92.57667987387927
 10
112.1792621295269
 20
92.59587551500266
 10
112.1917828982462
 20
92.61643842837657
 10
112.2023012052442
 20
92.6382394229222
 10
112.2106986253655
 20
92.661160073484
 10
112.2168567334544
 20
92.68508195490641
 10
112.220635572509
 20
92.70987587611066
 10
112.2219274832969
 20
92.73540188009468
 10
112.2219274832969
 20
92.73540188009468
 10
112.220635572509
 20
92.76106784108075
 10
112.2168567334544
 20
92.78595865559409
 10
112.2106986253655
 20
92.80995589847913
 10
112.2023012052442
 20
92.83297344235001
 10
112.1917721323229
 20
92.85484979835827
 10
112.1792728954501
 20
92.87546654134835
 10
112.1648896220116
 20
92.89470524616465
 10
112.1487622690095
 20
92.91244748765166
 10
112.1310307934457
 20
92.92856407473059
 10
112.1118028545526
 20
92.94293658224584
 10
112.091207643409
 20
92.95542505319544
 10
112.0693743510937
 20
92.96593259427027
 10
112.0464214027622
 20
92.97431924846832
 10
112.0224887554165
 20
92.98045582471079
 10
111.9976948342123
 20
92.98423466376536
 10
111.972158064305
 20
92.98551580863003
 10
111.972158064305
 20
92.98551580863003
 10
111.9465782307048
 20
92.98422389784213
 10
111.9217197139612
 20
92.98045582471079
 10
111.8977547688458
 20
92.97430848254508
 10
111.8747910545911
 20
92.96593259427027
 10
111.8529469963525
 20
92.95543581911866
 10
111.8323517852089
 20
92.94293658224584
 10
111.8131453781623
 20
92.92856407473059
 10
111.7954139025985
 20
92.91244748765166
 10
111.7793188473661
 20
92.89471601208788
 10
111.764957105774
 20
92.87546654134835
 10
111.7524686348245
 20
92.85484979835827
 10
111.7419718596729
 20
92.83297344235001
 10
111.733595971398
 20
92.80996666440237
 10
111.7274486292323
 20
92.78595865559409
 10
111.7236697901778
 20
92.76105707515752
 10
111.7223886453131
 20
92.73540188009468
 10
111.7223886453131
 20
92.73540188009468
 10
111.7236697901778
 20
92.70986511018742
 10
111.7274593951556
 20
92.68509272082964
 10
111.7335852054748
 20
92.66117083940722
 10
111.7419718596729
 20
92.6382394229222
 10
111.7524686348245
 20
92.61643842837657
 10
111.764957105774
 20
92.59586474907942
 10
111.7793080814429
 20
92.57666910795605
 10
111.7954139025985
 20
92.55896993016196
 10
111.8131346122391
 20
92.54288564085275
 10
111.8323625511322
 20
92.52853466518394
 10
111.8529469963525
 20
92.51605696015758
 10
111.8747910545911
 20
92.50556018500598
 10
111.8977547688458
 20
92.49718429673118
 10
111.9217197139612
 20
92.4910477204887
 10
111.9465674647816
 20
92.48726888143412
 97
        0
 75
     1
 76
     1
 98
        0
  0
LWPOLYLINE
  5
7A
330
1F
100
AcDbEntity
  8
ISS138金台
  6
Continuous
 62
   250
420
  2367521
370
    13
100
AcDbPolyline
 90
       68
 70
     0
 43
0.0
 10
111.972158064305
 20
92.48598773656946
 10
111.9976948342123
 20
92.48726888143412
 10
112.0224887554165
 20
92.4910477204887
 10
112.0464321686854
 20
92.49718429673118
 10
112.0693743510937
 20
92.50556018500598
 10
112.091207643409
 20
92.51605696015758
 10
112.1118028545526
 20
92.52853466518394
 10
112.1310307934457
 20
92.54288564085275
 10
112.1487622690095
 20
92.55896993016196
 10
112.1648896220116
 20
92.57667987387927
 10
112.1792621295269
 20
92.59587551500266
 10
112.1917828982462
 20
92.61643842837657
 10
112.2023012052442
 20
92.6382394229222
 10
112.2106986253655
 20
92.661160073484
 10
112.2168567334544
 20
92.68508195490641
 10
112.220635572509
 20
92.70987587611066
 10
112.2219274832969
 20
92.73540188009468
 10
112.2219274832969
 20
92.73540188009468
 10
112.220635572509
 20
92.76106784108075
 10
112.2168567334544
 20
92.78595865559409
 10
112.2106986253655
 20
92.80995589847913
 10
112.2023012052442
 20
92.83297344235001
 10
112.1917721323229
 20
92.85484979835827
 10
112.1792728954501
 20
92.87546654134835
 10
112.1648896220116
 20
92.89470524616465
 10
112.1487622690095
 20
92.91244748765166
 10
112.1310307934457
 20
92.92856407473059
 10
112.1118028545526
 20
92.94293658224584
 10
112.091207643409
 20
92.95542505319544
 10
112.0693743510937
 20
92.96593259427027
 10
112.0464214027622
 20
92.97431924846832
 10
112.0224887554165
 20
92.98045582471079
 10
111.9976948342123
 20
92.98423466376536
 10
111.972158064305
 20
92.98551580863003
 10
111.972158064305
 20
92.98551580863003
 10
111.9465782307048
 20
92.98422389784213
 10
111.9217197139612
 20
92.98045582471079
 10
111.8977547688458
 20
92.97430848254508
 10
111.8747910545911
 20
92.96593259427027
 10
111.8529469963525
 20
92.95543581911866
 10
111.8323517852089
 20
92.94293658224584
 10
111.8131453781623
 20
92.92856407473059
 10
111.7954139025985
 20
92.91244748765166
 10
111.7793188473661
 20
92.89471601208788
 10
111.764957105774
 20
92.87546654134835
 10
111.7524686348245
 20
92.85484979835827
 10
111.7419718596729
 20
92.83297344235001
 10
111.733595971398
 20
92.80996666440237
 10
111.7274486292323
 20
92.78595865559409
 10
111.7236697901778
 20
92.76105707515752
 10
111.7223886453131
 20
92.73540188009468
 10
111.7223886453131
 20
92.73540188009468
 10
111.7236697901778
 20
92.70986511018742
 10
111.7274593951556
 20
92.68509272082964
 10
111.7335852054748
 20
92.66117083940722
 10
111.7419718596729
 20
92.6382394229222
 10
111.7524686348245
 20
92.61643842837657
 10
111.764957105774
 20
92.59586474907942
 10
111.7793080814429
 20
92.57666910795605
 10
111.7954139025985
 20
92.55896993016196
 10
111.8131346122391
 20
92.54288564085275
 10
111.8323625511322
 20
92.52853466518394
 10
111.8529469963525
 20
92.51605696015758
 10
111.8747910545911
 20
92.50556018500598
 10
111.8977547688458
 20
92.49718429673118
 10
111.9217197139612
 20
92.4910477204887
 10
111.9465674647816
 20
92.48726888143412
 10
111.972158064305
 20
92.48598773656946
  0
HATCH
  5
7B
330
1F
100
AcDbEntity
  8
ISS138金台
  6
Continuous
 62
   250
420
  2367521
370
    13
100
AcDbHatch
 10
0.0
 20
0.0
 30
0.0
210
0.0
220
0.0
230
1.0
  2
SOLID
 70
     1
 71
     0
 91
        1
 92
        3
 72
     0
 73
     1
 93
       67
 10
116.4721201888339
 20
113.1205590955061
 10
116.4976461928179
 20
113.121851006294
 10
116.5224508799454
 20
113.1256298453486
 10
116.546383527291
 20
113.1317879534375
 10
116.5693364756225
 20
113.140196139482
 10
116.5911697679379
 20
113.1507036805568
 10
116.6117649790815
 20
113.1632136833529
 10
116.6309929179746
 20
113.1775969567914
 10
116.6487351594616
 20
113.1937135438703
 10
116.6648517465405
 20
113.2114557853573
 10
116.679235019979
 20
113.2306837242504
 10
116.691745022775
 20
113.2512681694708
 10
116.7022633297731
 20
113.2731014617861
 10
116.7106607498944
 20
113.2960544101176
 10
116.7168188579833
 20
113.3199870574633
 10
116.7205976970379
 20
113.3447917445907
 10
116.7218896078258
 20
113.370328514498
 10
116.7218896078258
 20
113.370328514498
 10
116.7205976970379
 20
113.3959298799447
 10
116.7168188579833
 20
113.4207776307651
 10
116.7106607498944
 20
113.4447641077269
 10
116.7022525638499
 20
113.4677601197513
 10
116.691745022775
 20
113.4896149439131
 10
116.679235019979
 20
113.5102316869031
 10
116.6648517465405
 20
113.5294919235659
 10
116.6487351594616
 20
113.5472449309762
 10
116.6309929179746
 20
113.5633830499016
 10
116.6117649790815
 20
113.57776632334
 10
116.5911697679379
 20
113.5902870920593
 10
116.5693364756225
 20
113.6008053990574
 10
116.546383527291
 20
113.6092135851019
 10
116.5224508799454
 20
113.6153716931909
 10
116.4976569587412
 20
113.6191505322454
 10
116.4721201888339
 20
113.6204424430333
 10
116.4721201888339
 20
113.6204424430333
 10
116.4465295893105
 20
113.6191505322454
 10
116.4216926044133
 20
113.6153609272676
 10
116.3977168933747
 20
113.6092135851019
 10
116.37475317912
 20
113.6008161649806
 10
116.3529091208814
 20
113.5902870920593
 10
116.3323139097378
 20
113.57776632334
 10
116.3131075026912
 20
113.5633830499016
 10
116.2953760271274
 20
113.5472449309762
 10
116.279280971895
 20
113.5294919235659
 10
116.264919230303
 20
113.5102424528264
 10
116.2524199934301
 20
113.4896149439131
 10
116.2419339842018
 20
113.4677493538281
 10
116.2335473300037
 20
113.4447641077269
 10
116.2274107537612
 20
113.4207776307651
 10
116.2236319147066
 20
113.3959298799447
 10
116.222350769842
 20
113.370328514498
 10
116.222350769842
 20
113.370328514498
 10
116.2236319147066
 20
113.3447809786675
 10
116.227399987838
 20
113.3199978233865
 10
116.2335580959269
 20
113.2960544101176
 10
116.2419232182785
 20
113.2731014617861
 10
116.2524199934301
 20
113.251278935394
 10
116.264919230303
 20
113.2306837242504
 10
116.2792702059717
 20
113.2114557853573
 10
116.2953760271274
 20
113.1937135438703
 10
116.3131075026912
 20
113.1775969567914
 10
116.3323246756611
 20
113.1632136833529
 10
116.3529091208814
 20
113.1507036805568
 10
116.37475317912
 20
113.1401853735588
 10
116.3977168933747
 20
113.1317879534375
 10
116.42168183849
 20
113.1256298453486
 10
116.4465295893105
 20
113.121851006294
 97
        0
 75
     1
 76
     1
 98
        0
  0
LWPOLYLINE
  5
7C
330
1F
100
AcDbEntity
  8
ISS138金台
  6
Continuous
 62
   250
420
  2367521
370
    13
100
AcDbPolyline
 90
       68
 70
     0
 43
0.0
 10
116.4721201888339
 20
113.1205590955061
 10
116.4976461928179
 20
113.121851006294
 10
116.5224508799454
 20
113.1256298453486
 10
116.546383527291
 20
113.1317879534375
 10
116.5693364756225
 20
113.140196139482
 10
116.5911697679379
 20
113.1507036805568
 10
116.6117649790815
 20
113.1632136833529
 10
116.6309929179746
 20
113.1775969567914
 10
116.6487351594616
 20
113.1937135438703
 10
116.6648517465405
 20
113.2114557853573
 10
116.679235019979
 20
113.2306837242504
 10
116.691745022775
 20
113.2512681694708
 10
116.7022633297731
 20
113.2731014617861
 10
116.7106607498944
 20
113.2960544101176
 10
116.7168188579833
 20
113.3199870574633
 10
116.7205976970379
 20
113.3447917445907
 10
116.7218896078258
 20
113.370328514498
 10
116.7218896078258
 20
113.370328514498
 10
116.7205976970379
 20
113.3959298799447
 10
116.7168188579833
 20
113.4207776307651
 10
116.7106607498944
 20
113.4447641077269
 10
116.7022525638499
 20
113.4677601197513
 10
116.691745022775
 20
113.4896149439131
 10
116.679235019979
 20
113.5102316869031
 10
116.6648517465405
 20
113.5294919235659
 10
116.6487351594616
 20
113.5472449309762
 10
116.6309929179746
 20
113.5633830499016
 10
116.6117649790815
 20
113.57776632334
 10
116.5911697679379
 20
113.5902870920593
 10
116.5693364756225
 20
113.6008053990574
 10
116.546383527291
 20
113.6092135851019
 10
116.5224508799454
 20
113.6153716931909
 10
116.4976569587412
 20
113.6191505322454
 10
116.4721201888339
 20
113.6204424430333
 10
116.4721201888339
 20
113.6204424430333
 10
116.4465295893105
 20
113.6191505322454
 10
116.4216926044133
 20
113.6153609272676
 10
116.3977168933747
 20
113.6092135851019
 10
116.37475317912
 20
113.6008161649806
 10
116.3529091208814
 20
113.5902870920593
 10
116.3323139097378
 20
113.57776632334
 10
116.3131075026912
 20
113.5633830499016
 10
116.2953760271274
 20
113.5472449309762
 10
116.279280971895
 20
113.5294919235659
 10
116.264919230303
 20
113.5102424528264
 10
116.2524199934301
 20
113.4896149439131
 10
116.2419339842018
 20
113.4677493538281
 10
116.2335473300037
 20
113.4447641077269
 10
116.2274107537612
 20
113.4207776307651
 10
116.2236319147066
 20
113.3959298799447
 10
116.222350769842
 20
113.370328514498
 10
116.222350769842
 20
113.370328514498
 10
116.2236319147066
 20
113.3447809786675
 10
116.227399987838
 20
113.3199978233865
 10
116.2335580959269
 20
113.2960544101176
 10
116.2419232182785
 20
113.2731014617861
 10
116.2524199934301
 20
113.251278935394
 10
116.264919230303
 20
113.2306837242504
 10
116.2792702059717
 20
113.2114557853573
 10
116.2953760271274
 20
113.1937135438703
 10
116.3131075026912
 20
113.1775969567914
 10
116.3323246756611
 20
113.1632136833529
 10
116.3529091208814
 20
113.1507036805568
 10
116.37475317912
 20
113.1401853735588
 10
116.3977168933747
 20
113.1317879534375
 10
116.42168183849
 20
113.1256298453486
 10
116.4465295893105
 20
113.121851006294
 10
116.4721201888339
 20
113.1205590955061
  0
HATCH
  5
7D
330
1F
100
AcDbEntity
  8
ISS138金台
  6
Continuous
 62
   250
420
  2367521
370
    13
100
AcDbHatch
 10
0.0
 20
0.0
 30
0.0
210
0.0
220
0.0
230
1.0
  2
SOLID
 70
     1
 71
     0
 91
        1
 92
        3
 72
     0
 73
     1
 93
       67
 10
131.9722935671558
 20
92.48530948340581
 10
131.997830337063
 20
92.48660139419371
 10
132.0226350241905
 20
92.49040176509476
 10
132.0465999693058
 20
92.49657063910692
 10
132.0695636835606
 20
92.5050003569979
 10
132.0914185077224
 20
92.51554019584242
 10
132.1120567825589
 20
92.52807173048495
 10
132.1313062532984
 20
92.54248730169314
 10
132.1490807925551
 20
92.558646952465
 10
132.1652296774038
 20
92.57641072579847
 10
132.179645248612
 20
92.59567096246124
 10
132.1921875491777
 20
92.61629847137455
 10
132.2027381539455
 20
92.63815329553634
 10
132.2111571059132
 20
92.6611277757143
 10
132.2173259799254
 20
92.68508195490641
 10
132.2211263508264
 20
92.70989740795711
 10
132.2224182616143
 20
92.73543417786439
 10
132.2224182616143
 20
92.73543417786439
 10
132.2211263508264
 20
92.76097094777165
 10
132.2173259799254
 20
92.78577563489912
 10
132.2111571059132
 20
92.80974058001448
 10
132.2027273880223
 20
92.83271506019244
 10
132.1921983151009
 20
92.85456988435422
 10
132.179645248612
 20
92.87518662734429
 10
132.165240443327
 20
92.89444686400708
 10
132.1490807925551
 20
92.91222140326377
 10
132.1313062532984
 20
92.9283702881124
 10
132.1120567825589
 20
92.94277509339736
 10
132.0914292736456
 20
92.95531739396311
 10
132.0695636835606
 20
92.96586799873089
 10
132.0465892033826
 20
92.97428695069863
 10
132.0226457901137
 20
92.98045582471079
 10
131.997830337063
 20
92.98425619561183
 10
131.9722935671558
 20
92.98554810639972
 10
131.9722935671558
 20
92.98554810639972
 10
131.9467567972485
 20
92.98425619561183
 10
131.9219413441978
 20
92.98046659063402
 10
131.8979871650056
 20
92.97427618477539
 10
131.8750126848277
 20
92.96586799873089
 10
131.8531578606659
 20
92.95532815988635
 10
131.8325303517526
 20
92.94277509339736
 10
131.8132808810131
 20
92.9283702881124
 10
131.7955063417564
 20
92.91222140326377
 10
131.7793466909845
 20
92.89444686400708
 10
131.7649418856996
 20
92.87518662734429
 10
131.7523995851338
 20
92.85456988435422
 10
131.7418597462893
 20
92.8327042942692
 10
131.7334300283983
 20
92.80974058001448
 10
131.7272611543861
 20
92.78578640082236
 10
131.7234607834851
 20
92.76097094777165
 10
131.7221688726972
 20
92.73543417786439
 10
131.7221688726972
 20
92.73543417786439
 10
131.7234607834851
 20
92.70988664203388
 10
131.7272611543861
 20
92.68508195490641
 10
131.7334192624751
 20
92.6611277757143
 10
131.741848980366
 20
92.63816406145958
 10
131.7523995851338
 20
92.61629847137455
 10
131.7649526516228
 20
92.59567096246124
 10
131.7793574569077
 20
92.57641072579847
 10
131.7955063417564
 20
92.558646952465
 10
131.8132808810131
 20
92.54248730169314
 10
131.8325411176758
 20
92.52808249640819
 10
131.8531578606659
 20
92.51554019584242
 10
131.8750234507509
 20
92.50498959107466
 10
131.8979871650056
 20
92.49657063910692
 10
131.9219413441978
 20
92.49040176509476
 10
131.9467567972485
 20
92.48660139419371
 97
        0
 75
     1
 76
     1
 98
        0
  0
LWPOLYLINE
  5
7E
330
1F
100
AcDbEntity
  8
ISS138金台
  6
Continuous
 62
   250
420
  2367521
370
    13
100
AcDbPolyline
 90
       68
 70
     0
 43
0.0
 10
131.9722935671558
 20
92.48530948340581
 10
131.997830337063
 20
92.48660139419371
 10
132.0226350241905
 20
92.49040176509476
 10
132.0465999693058
 20
92.49657063910692
 10
132.0695636835606
 20
92.5050003569979
 10
132.0914185077224
 20
92.51554019584242
 10
132.1120567825589
 20
92.52807173048495
 10
132.1313062532984
 20
92.54248730169314
 10
132.1490807925551
 20
92.558646952465
 10
132.1652296774038
 20
92.57641072579847
 10
132.179645248612
 20
92.59567096246124
 10
132.1921875491777
 20
92.61629847137455
 10
132.2027381539455
 20
92.63815329553634
 10
132.2111571059132
 20
92.6611277757143
 10
132.2173259799254
 20
92.68508195490641
 10
132.2211263508264
 20
92.70989740795711
 10
132.2224182616143
 20
92.73543417786439
 10
132.2224182616143
 20
92.73543417786439
 10
132.2211263508264
 20
92.76097094777165
 10
132.2173259799254
 20
92.78577563489912
 10
132.2111571059132
 20
92.80974058001448
 10
132.2027273880223
 20
92.83271506019244
 10
132.1921983151009
 20
92.85456988435422
 10
132.179645248612
 20
92.87518662734429
 10
132.165240443327
 20
92.89444686400708
 10
132.1490807925551
 20
92.91222140326377
 10
132.1313062532984
 20
92.9283702881124
 10
132.1120567825589
 20
92.94277509339736
 10
132.0914292736456
 20
92.95531739396311
 10
132.0695636835606
 20
92.96586799873089
 10
132.0465892033826
 20
92.97428695069863
 10
132.0226457901137
 20
92.98045582471079
 10
131.997830337063
 20
92.98425619561183
 10
131.9722935671558
 20
92.98554810639972
 10
131.9722935671558
 20
92.98554810639972
 10
131.9467567972485
 20
92.98425619561183
 10
131.9219413441978
 20
92.98046659063402
 10
131.8979871650056
 20
92.97427618477539
 10
131.8750126848277
 20
92.96586799873089
 10
131.8531578606659
 20
92.95532815988635
 10
131.8325303517526
 20
92.94277509339736
 10
131.8132808810131
 20
92.9283702881124
 10
131.7955063417564
 20
92.91222140326377
 10
131.7793466909845
 20
92.89444686400708
 10
131.7649418856996
 20
92.87518662734429
 10
131.7523995851338
 20
92.85456988435422
 10
131.7418597462893
 20
92.8327042942692
 10
131.7334300283983
 20
92.80974058001448
 10
131.7272611543861
 20
92.78578640082236
 10
131.7234607834851
 20
92.76097094777165
 10
131.7221688726972
 20
92.73543417786439
 10
131.7221688726972
 20
92.73543417786439
 10
131.7234607834851
 20
92.70988664203388
 10
131.7272611543861
 20
92.68508195490641
 10
131.7334192624751
 20
92.6611277757143
 10
131.741848980366
 20
92.63816406145958
 10
131.7523995851338
 20
92.61629847137455
 10
131.7649526516228
 20
92.59567096246124
 10
131.7793574569077
 20
92.57641072579847
 10
131.7955063417564
 20
92.558646952465
 10
131.8132808810131
 20
92.54248730169314
 10
131.8325411176758
 20
92.52808249640819
 10
131.8531578606659
 20
92.51554019584242
 10
131.8750234507509
 20
92.50498959107466
 10
131.8979871650056
 20
92.49657063910692
 10
131.9219413441978
 20
92.49040176509476
 10
131.9467567972485
 20
92.48660139419371
 10
131.9722935671558
 20
92.48530948340581
  0
TEXT
  5
7F
330
1F
100
AcDbEntity
  8
ISS138金台
  6
Continuous
 62
   250
420
  2367521
100
AcDbText
 10
111.6822532835027
 20
114.4739896415859
 30
0.0
 40
2.150533301035563
  1
4 . 5
 41
0.6300003051757812
  7
MS Gothic
100
AcDbText
  0
TEXT
  5
80
330
1F
100
AcDbEntity
  8
ISS138金台
  6
Continuous
 62
   250
420
  2367521
100
AcDbText
 10
120.2787460912724
 20
93.79556867732363
 30
0.0
 40
2.150533301035563
  1
20
 41
0.9460029602050779
  7
MS Gothic
100
AcDbText
  0
LINE
  5
81
330
1F
100
AcDbEntity
  8
ISS138金台
  6
UserDefined01
 62
   140
420
    44526
370
    13
100
AcDbLine
 10
124.9722364518271
 20
98.21862653936276
 30
0.0
 11
131.9724012263881
 21
98.21862653936276
 31
0.0
  0
TEXT
  5
82
330
1F
100
AcDbEntity
  8
ISS138金台
  6
Continuous
 62
   140
420
    44526
100
AcDbText
 10
127.8386850443025
 20
99.0077904163996
 30
0.0
 40
1.881716638406118
  1
7
 41
1.025009155273438
  7
MS Gothic
100
AcDbText
  0
HATCH
  5
83
330
1F
100
AcDbEntity
  8
ISS138金台
  6
Continuous
 62
   140
420
    44526
370
    50
100
AcDbHatch
 10
0.0
 20
0.0
 30
0.0
210
0.0
220
0.0
230
1.0
  2
SOLID
 70
     1
 71
     0
 91
        1
 92
        3
 72
     0
 73
     1
 93
        3
 10
124.1064732032464
 20
107.6714516469615
 10
125.8379028070986
 20
107.6707410960282
 10
124.9732484486109
 20
106.17250138939
 97
        0
 75
     1
 76
     1
 98
        0
  0
LWPOLYLINE
  5
84
330
1F
100
AcDbEntity
  8
ISS138金台
  6
Continuous
 62
   140
420
    44526
370
    50
100
AcDbPolyline
 90
        4
 70
     0
 43
0.0
 10
124.1064732032464
 20
107.6714516469615
 10
125.8379028070986
 20
107.6707410960282
 10
124.9732484486109
 20
106.17250138939
 10
124.1064732032464
 20
107.6714516469615
  0
LINE
  5
85
330
1F
100
AcDbEntity
  8
ISS138金台
  6
Continuous
 62
   250
420
  2367521
370
    13
100
AcDbLine
 10
132.84443024229
 20
106.8351439643448
 30
0.0
 11
137.8496371441159
 21
106.8351439643448
 31
0.0
  0
LINE
  5
86
330
1F
100
AcDbEntity
  8
ISS138金台
  6
Continuous
 62
   250
420
  2367521
370
    13
100
AcDbLine
 10
132.84443024229
 20
104.3353934830884
 30
0.0
 11
137.8496371441159
 21
104.3353934830884
 31
0.0
  0
LINE
  5
87
330
1F
100
AcDbEntity
  8
ISS138金台
  6
Continuous
 62
   250
420
  2367521
370
    13
100
AcDbLine
 10
132.84443024229
 20
107.3353825873386
 30
0.0
 11
142.8544995363983
 21
107.3353825873386
 31
0.0
  0
LINE
  5
88
330
1F
100
AcDbEntity
  8
ISS138金台
  6
Continuous
 62
   250
420
  2367521
370
    13
100
AcDbLine
 10
142.3473814884589
 20
103.1351437656
 30
0.0
 11
142.3473814884589
 21
107.7378343296126
 31
0.0
  0
LINE
  5
89
330
1F
100
AcDbEntity
  8
ISS138金台
  6
Continuous
 62
   250
420
  2367521
370
    13
100
AcDbLine
 10
132.84443024229
 20
103.1351437656
 30
0.0
 11
142.8544995363983
 21
103.1351437656
 31
0.0
  0
HATCH
  5
8A
330
1F
100
AcDbEntity
  8
ISS138金台
  6
Continuous
 62
   250
420
  2367521
370
    13
100
AcDbHatch
 10
0.0
 20
0.0
 30
0.0
210
0.0
220
0.0
230
1.0
  2
SOLID
 70
     1
 71
     0
 91
        1
 92
        3
 72
     0
 73
     1
 93
       67
 10
137.3423468414047
 20
104.0852795545531
 10
137.367883611312
 20
104.0865606994177
 10
137.3926990643627
 20
104.0903395384723
 10
137.4166532435548
 20
104.0964761147148
 10
137.4396169578096
 20
104.1048627689128
 10
137.4614825478946
 20
104.1153703099877
 10
137.4821100568079
 20
104.1278695468605
 10
137.5013595275474
 20
104.1422312884525
 10
137.5191340668041
 20
104.1583478755314
 10
137.535293717576
 20
104.1760901170185
 10
137.5496985228609
 20
104.195339587758
 10
137.5622408234267
 20
104.2159563307481
 10
137.5727914281944
 20
104.2378326867563
 10
137.5812103801622
 20
104.260839464704
 10
137.5873792541744
 20
104.2848474735122
 10
137.5911796250754
 20
104.3097490539488
 10
137.5924715358633
 20
104.3354042490116
 10
137.5924715358633
 20
104.3354042490116
 10
137.5911903909986
 20
104.3609410189189
 10
137.5873792541744
 20
104.3857134082767
 10
137.5812103801622
 20
104.4096460556223
 10
137.5727806622712
 20
104.4325667061841
 10
137.5622408234267
 20
104.4543677007298
 10
137.5496985228609
 20
104.4749306141037
 10
137.535293717576
 20
104.4941262552271
 10
137.5191340668041
 20
104.5118361989444
 10
137.5013595275474
 20
104.5279204882536
 10
137.4820992908846
 20
104.5422714639224
 10
137.4614825478946
 20
104.5547384030255
 10
137.4396169578096
 20
104.5652351781771
 10
137.4166532435548
 20
104.5736110664519
 10
137.3926990643627
 20
104.5797476426944
 10
137.367883611312
 20
104.583526481749
 10
137.3423468414047
 20
104.5848076266136
 10
137.3423468414047
 20
104.5848076266136
 10
137.3168100714975
 20
104.5835157158257
 10
137.2919946184468
 20
104.5797476426944
 10
137.2680404392547
 20
104.5736110664519
 10
137.2450767249999
 20
104.5652351781771
 10
137.2232111349149
 20
104.5547491689488
 10
137.2025836260016
 20
104.5422606979992
 10
137.1833341552621
 20
104.5279204882536
 10
137.1655596160053
 20
104.5118361989444
 10
137.1494107311567
 20
104.4941262552271
 10
137.1349951599485
 20
104.4749306141037
 10
137.1224528593828
 20
104.4543677007298
 10
137.111902254615
 20
104.4325667061841
 10
137.1034833026472
 20
104.4096460556223
 10
137.0973144286351
 20
104.3857241741999
 10
137.0935140577341
 20
104.3609302529957
 10
137.0922221469462
 20
104.3354042490116
 10
137.0922221469462
 20
104.3354042490116
 10
137.0935248236573
 20
104.3097382880256
 10
137.0973036627119
 20
104.2848474735122
 10
137.1034833026472
 20
104.260839464704
 10
137.1119130205382
 20
104.2378326867563
 10
137.1224528593828
 20
104.2159563307481
 10
137.1349951599485
 20
104.195339587758
 10
137.1494107311567
 20
104.1760901170185
 10
137.1655596160053
 20
104.1583586414547
 10
137.1833341552621
 20
104.1422312884525
 10
137.2025943919248
 20
104.1278695468605
 10
137.2232111349149
 20
104.1153703099877
 10
137.2450767249999
 20
104.1048627689128
 10
137.2680404392547
 20
104.096486880638
 10
137.2919946184468
 20
104.0903395384723
 10
137.3168100714975
 20
104.0865606994177
 97
        0
 75
     1
 76
     1
 98
        0
  0
LWPOLYLINE
  5
8B
330
1F
100
AcDbEntity
  8
ISS138金台
  6
Continuous
 62
   250
420
  2367521
370
    13
100
AcDbPolyline
 90
       68
 70
     0
 43
0.0
 10
137.3423468414047
 20
104.0852795545531
 10
137.367883611312
 20
104.0865606994177
 10
137.3926990643627
 20
104.0903395384723
 10
137.4166532435548
 20
104.0964761147148
 10
137.4396169578096
 20
104.1048627689128
 10
137.4614825478946
 20
104.1153703099877
 10
137.4821100568079
 20
104.1278695468605
 10
137.5013595275474
 20
104.1422312884525
 10
137.5191340668041
 20
104.1583478755314
 10
137.535293717576
 20
104.1760901170185
 10
137.5496985228609
 20
104.195339587758
 10
137.5622408234267
 20
104.2159563307481
 10
137.5727914281944
 20
104.2378326867563
 10
137.5812103801622
 20
104.260839464704
 10
137.5873792541744
 20
104.2848474735122
 10
137.5911796250754
 20
104.3097490539488
 10
137.5924715358633
 20
104.3354042490116
 10
137.5924715358633
 20
104.3354042490116
 10
137.5911903909986
 20
104.3609410189189
 10
137.5873792541744
 20
104.3857134082767
 10
137.5812103801622
 20
104.4096460556223
 10
137.5727806622712
 20
104.4325667061841
 10
137.5622408234267
 20
104.4543677007298
 10
137.5496985228609
 20
104.4749306141037
 10
137.535293717576
 20
104.4941262552271
 10
137.5191340668041
 20
104.5118361989444
 10
137.5013595275474
 20
104.5279204882536
 10
137.4820992908846
 20
104.5422714639224
 10
137.4614825478946
 20
104.5547384030255
 10
137.4396169578096
 20
104.5652351781771
 10
137.4166532435548
 20
104.5736110664519
 10
137.3926990643627
 20
104.5797476426944
 10
137.367883611312
 20
104.583526481749
 10
137.3423468414047
 20
104.5848076266136
 10
137.3423468414047
 20
104.5848076266136
 10
137.3168100714975
 20
104.5835157158257
 10
137.2919946184468
 20
104.5797476426944
 10
137.2680404392547
 20
104.5736110664519
 10
137.2450767249999
 20
104.5652351781771
 10
137.2232111349149
 20
104.5547491689488
 10
137.2025836260016
 20
104.5422606979992
 10
137.1833341552621
 20
104.5279204882536
 10
137.1655596160053
 20
104.5118361989444
 10
137.1494107311567
 20
104.4941262552271
 10
137.1349951599485
 20
104.4749306141037
 10
137.1224528593828
 20
104.4543677007298
 10
137.111902254615
 20
104.4325667061841
 10
137.1034833026472
 20
104.4096460556223
 10
137.0973144286351
 20
104.3857241741999
 10
137.0935140577341
 20
104.3609302529957
 10
137.0922221469462
 20
104.3354042490116
 10
137.0922221469462
 20
104.3354042490116
 10
137.0935248236573
 20
104.3097382880256
 10
137.0973036627119
 20
104.2848474735122
 10
137.1034833026472
 20
104.260839464704
 10
137.1119130205382
 20
104.2378326867563
 10
137.1224528593828
 20
104.2159563307481
 10
137.1349951599485
 20
104.195339587758
 10
137.1494107311567
 20
104.1760901170185
 10
137.1655596160053
 20
104.1583586414547
 10
137.1833341552621
 20
104.1422312884525
 10
137.2025943919248
 20
104.1278695468605
 10
137.2232111349149
 20
104.1153703099877
 10
137.2450767249999
 20
104.1048627689128
 10
137.2680404392547
 20
104.096486880638
 10
137.2919946184468
 20
104.0903395384723
 10
137.3168100714975
 20
104.0865606994177
 10
137.3423468414047
 20
104.0852795545531
  0
HATCH
  5
8C
330
1F
100
AcDbEntity
  8
ISS138金台
  6
Continuous
 62
   250
420
  2367521
370
    13
100
AcDbHatch
 10
0.0
 20
0.0
 30
0.0
210
0.0
220
0.0
230
1.0
  2
SOLID
 70
     1
 71
     0
 91
        1
 92
        3
 72
     0
 73
     1
 93
       67
 10
142.3473814884589
 20
102.8856973243051
 10
142.3729182583662
 20
102.886989235093
 10
142.3977014136472
 20
102.8907465423011
 10
142.4216232950696
 20
102.8968938844668
 10
142.4445439456314
 20
102.9052697727416
 10
142.466344940177
 20
102.9157665478932
 10
142.4869078535509
 20
102.9282442529196
 10
142.5061034946743
 20
102.9425952285884
 10
142.5238134383916
 20
102.9586795178976
 10
142.5399084936241
 20
102.9763786956917
 10
142.5542487033696
 20
102.9955851027383
 10
142.566726408396
 20
103.0161480161122
 10
142.5772231835476
 20
103.0379490106578
 10
142.5855990718224
 20
103.0608696612196
 10
142.5917356480649
 20
103.0847915426421
 10
142.5955144871194
 20
103.1095746979231
 10
142.5967956319841
 20
103.1351114678303
 10
142.5967956319841
 20
103.1351114678303
 10
142.5955144871194
 20
103.1607666628932
 10
142.5917356480649
 20
103.1856574774065
 10
142.5855990718224
 20
103.209676252138
 10
142.5772231835476
 20
103.2326830300857
 10
142.566726408396
 20
103.2545486201707
 10
142.5542487033696
 20
103.2751868950072
 10
142.5398977277008
 20
103.2944148339003
 10
142.5238134383916
 20
103.3121570753873
 10
142.5061142605975
 20
103.3282736624662
 10
142.4869078535509
 20
103.3426461699815
 10
142.4663557061002
 20
103.3551454068543
 10
142.4445439456314
 20
103.3656421820059
 10
142.4216232950696
 20
103.3740288362039
 10
142.3977014136472
 20
103.3801654124464
 10
142.3729182583662
 20
103.383944251501
 10
142.3473814884589
 20
103.3852253963657
 10
142.3473814884589
 20
103.3852253963657
 10
142.321726293396
 20
103.383944251501
 10
142.2968247129595
 20
103.3801654124464
 10
142.272805938228
 20
103.3740288362039
 10
142.2498099262036
 20
103.3656421820059
 10
142.2279335701953
 20
103.3551454068543
 10
142.207306061282
 20
103.3426461699815
 10
142.1880781223889
 20
103.3282844283895
 10
142.1703358809019
 20
103.3121678413105
 10
142.154219293823
 20
103.2944148339003
 10
142.1398360203845
 20
103.275176129084
 10
142.1273367835117
 20
103.2545593860939
 10
142.11684000836
 20
103.2326830300857
 10
142.1084641200852
 20
103.209676252138
 10
142.1023167779196
 20
103.1856682433297
 10
142.0985487047882
 20
103.1607666628932
 10
142.0972567940003
 20
103.1351114678303
 10
142.0972567940003
 20
103.1351114678303
 10
142.098537938865
 20
103.1095746979231
 10
142.1023167779196
 20
103.0847807767188
 10
142.1084641200852
 20
103.0608696612196
 10
142.11684000836
 20
103.0379490106578
 10
142.1273367835117
 20
103.0161480161122
 10
142.1398360203845
 20
102.9955851027383
 10
142.1542085278998
 20
102.9763894616149
 10
142.1703251149787
 20
102.9586795178976
 10
142.1880781223889
 20
102.9425952285884
 10
142.2073168272052
 20
102.9282442529196
 10
142.2279335701953
 20
102.9157665478932
 10
142.2498099262036
 20
102.9052697727416
 10
142.2728167041512
 20
102.8968938844668
 10
142.2968247129595
 20
102.8907573082243
 10
142.321726293396
 20
102.8869784691698
 97
        0
 75
     1
 76
     1
 98
        0
  0
LWPOLYLINE
  5
8D
330
1F
100
AcDbEntity
  8
ISS138金台
  6
Continuous
 62
   250
420
  2367521
370
    13
100
AcDbPolyline
 90
       68
 70
     0
 43
0.0
 10
142.3473814884589
 20
102.8856973243051
 10
142.3729182583662
 20
102.886989235093
 10
142.3977014136472
 20
102.8907465423011
 10
142.4216232950696
 20
102.8968938844668
 10
142.4445439456314
 20
102.9052697727416
 10
142.466344940177
 20
102.9157665478932
 10
142.4869078535509
 20
102.9282442529196
 10
142.5061034946743
 20
102.9425952285884
 10
142.5238134383916
 20
102.9586795178976
 10
142.5399084936241
 20
102.9763786956917
 10
142.5542487033696
 20
102.9955851027383
 10
142.566726408396
 20
103.0161480161122
 10
142.5772231835476
 20
103.0379490106578
 10
142.5855990718224
 20
103.0608696612196
 10
142.5917356480649
 20
103.0847915426421
 10
142.5955144871194
 20
103.1095746979231
 10
142.5967956319841
 20
103.1351114678303
 10
142.5967956319841
 20
103.1351114678303
 10
142.5955144871194
 20
103.1607666628932
 10
142.5917356480649
 20
103.1856574774065
 10
142.5855990718224
 20
103.209676252138
 10
142.5772231835476
 20
103.2326830300857
 10
142.566726408396
 20
103.2545486201707
 10
142.5542487033696
 20
103.2751868950072
 10
142.5398977277008
 20
103.2944148339003
 10
142.5238134383916
 20
103.3121570753873
 10
142.5061142605975
 20
103.3282736624662
 10
142.4869078535509
 20
103.3426461699815
 10
142.4663557061002
 20
103.3551454068543
 10
142.4445439456314
 20
103.3656421820059
 10
142.4216232950696
 20
103.3740288362039
 10
142.3977014136472
 20
103.3801654124464
 10
142.3729182583662
 20
103.383944251501
 10
142.3473814884589
 20
103.3852253963657
 10
142.3473814884589
 20
103.3852253963657
 10
142.321726293396
 20
103.383944251501
 10
142.2968247129595
 20
103.3801654124464
 10
142.272805938228
 20
103.3740288362039
 10
142.2498099262036
 20
103.3656421820059
 10
142.2279335701953
 20
103.3551454068543
 10
142.207306061282
 20
103.3426461699815
 10
142.1880781223889
 20
103.3282844283895
 10
142.1703358809019
 20
103.3121678413105
 10
142.154219293823
 20
103.2944148339003
 10
142.1398360203845
 20
103.275176129084
 10
142.1273367835117
 20
103.2545593860939
 10
142.11684000836
 20
103.2326830300857
 10
142.1084641200852
 20
103.209676252138
 10
142.1023167779196
 20
103.1856682433297
 10
142.0985487047882
 20
103.1607666628932
 10
142.0972567940003
 20
103.1351114678303
 10
142.0972567940003
 20
103.1351114678303
 10
142.098537938865
 20
103.1095746979231
 10
142.1023167779196
 20
103.0847807767188
 10
142.1084641200852
 20
103.0608696612196
 10
142.11684000836
 20
103.0379490106578
 10
142.1273367835117
 20
103.0161480161122
 10
142.1398360203845
 20
102.9955851027383
 10
142.1542085278998
 20
102.9763894616149
 10
142.1703251149787
 20
102.9586795178976
 10
142.1880781223889
 20
102.9425952285884
 10
142.2073168272052
 20
102.9282442529196
 10
142.2279335701953
 20
102.9157665478932
 10
142.2498099262036
 20
102.9052697727416
 10
142.2728167041512
 20
102.8968938844668
 10
142.2968247129595
 20
102.8907573082243
 10
142.321726293396
 20
102.8869784691698
 10
142.3473814884589
 20
102.8856973243051
  0
HATCH
  5
8E
330
1F
100
AcDbEntity
  8
ISS138金台
  6
Continuous
 62
   250
420
  2367521
370
    13
100
AcDbHatch
 10
0.0
 20
0.0
 30
0.0
210
0.0
220
0.0
230
1.0
  2
SOLID
 70
     1
 71
     0
 91
        1
 92
        3
 72
     0
 73
     1
 93
       67
 10
142.3473814884589
 20
107.0852686588033
 10
142.3729182583662
 20
107.086549803668
 10
142.3977014136472
 20
107.0903178767993
 10
142.4216232950696
 20
107.096465218965
 10
142.4445439456314
 20
107.1048518731631
 10
142.466344940177
 20
107.1153594142379
 10
142.4869078535509
 20
107.1278478851875
 10
142.5061034946743
 20
107.1422203927028
 10
142.5238134383916
 20
107.1583369797817
 10
142.5399084936241
 20
107.1760792212687
 10
142.5542487033696
 20
107.1953286920082
 10
142.566726408396
 20
107.2159454349983
 10
142.5772231835476
 20
107.2378217910066
 10
142.5855990718224
 20
107.2608285689542
 10
142.5917356480649
 20
107.2848365777625
 10
142.5955144871194
 20
107.309738158199
 10
142.5967956319841
 20
107.3353933532619
 10
142.5967956319841
 20
107.3353933532619
 10
142.5955144871194
 20
107.3609301231692
 10
142.5917356480649
 20
107.3857132784502
 10
142.5855990718224
 20
107.4096243939493
 10
142.5772231835476
 20
107.4325558104344
 10
142.566726408396
 20
107.4543675709032
 10
142.5542487033696
 20
107.4749197183539
 10
142.5398977277008
 20
107.4941153594773
 10
142.5238134383916
 20
107.5118253031946
 10
142.5061142605975
 20
107.5279095925038
 10
142.4869078535509
 20
107.5422498022494
 10
142.4663557061002
 20
107.554738273199
 10
142.4445439456314
 20
107.5652242824274
 10
142.4216232950696
 20
107.5736001707022
 10
142.3977014136472
 20
107.5797367469446
 10
142.3729182583662
 20
107.5835155859992
 10
142.3473814884589
 20
107.5847967308639
 10
142.3473814884589
 20
107.5847967308639
 10
142.321726293396
 20
107.5835155859992
 10
142.2968247129595
 20
107.5797367469446
 10
142.272805938228
 20
107.5736001707022
 10
142.2498099262036
 20
107.5652242824274
 10
142.2279335701953
 20
107.554738273199
 10
142.207306061282
 20
107.5422498022494
 10
142.1880781223889
 20
107.5278988265806
 10
142.1703358809019
 20
107.5118253031946
 10
142.154219293823
 20
107.4941153594773
 10
142.1398360203845
 20
107.4749197183539
 10
142.1273367835117
 20
107.45435680498
 10
142.11684000836
 20
107.4325558104344
 10
142.1084641200852
 20
107.4096243939493
 10
142.1023167779196
 20
107.3857132784502
 10
142.0985487047882
 20
107.3609301231692
 10
142.0972567940003
 20
107.3353933532619
 10
142.0972567940003
 20
107.3353933532619
 10
142.098537938865
 20
107.309738158199
 10
142.1023167779196
 20
107.2848473436857
 10
142.1084641200852
 20
107.2608285689542
 10
142.11684000836
 20
107.2378217910066
 10
142.1273367835117
 20
107.2159454349983
 10
142.1398360203845
 20
107.195317926085
 10
142.1542085278998
 20
107.1760792212687
 10
142.1703251149787
 20
107.1583477457049
 10
142.1880781223889
 20
107.1422203927028
 10
142.2073168272052
 20
107.1278478851875
 10
142.2279335701953
 20
107.1153594142379
 10
142.2498099262036
 20
107.1048518731631
 10
142.2728167041512
 20
107.0964759848882
 10
142.2968247129595
 20
107.0903286427226
 10
142.321726293396
 20
107.086549803668
 97
        0
 75
     1
 76
     1
 98
        0
  0
LWPOLYLINE
  5
8F
330
1F
100
AcDbEntity
  8
ISS138金台
  6
Continuous
 62
   250
420
  2367521
370
    13
100
AcDbPolyline
 90
       68
 70
     0
 43
0.0
 10
142.3473814884589
 20
107.0852686588033
 10
142.3729182583662
 20
107.086549803668
 10
142.3977014136472
 20
107.0903178767993
 10
142.4216232950696
 20
107.096465218965
 10
142.4445439456314
 20
107.1048518731631
 10
142.466344940177
 20
107.1153594142379
 10
142.4869078535509
 20
107.1278478851875
 10
142.5061034946743
 20
107.1422203927028
 10
142.5238134383916
 20
107.1583369797817
 10
142.5399084936241
 20
107.1760792212687
 10
142.5542487033696
 20
107.1953286920082
 10
142.566726408396
 20
107.2159454349983
 10
142.5772231835476
 20
107.2378217910066
 10
142.5855990718224
 20
107.2608285689542
 10
142.5917356480649
 20
107.2848365777625
 10
142.5955144871194
 20
107.309738158199
 10
142.5967956319841
 20
107.3353933532619
 10
142.5967956319841
 20
107.3353933532619
 10
142.5955144871194
 20
107.3609301231692
 10
142.5917356480649
 20
107.3857132784502
 10
142.5855990718224
 20
107.4096243939493
 10
142.5772231835476
 20
107.4325558104344
 10
142.566726408396
 20
107.4543675709032
 10
142.5542487033696
 20
107.4749197183539
 10
142.5398977277008
 20
107.4941153594773
 10
142.5238134383916
 20
107.5118253031946
 10
142.5061142605975
 20
107.5279095925038
 10
142.4869078535509
 20
107.5422498022494
 10
142.4663557061002
 20
107.554738273199
 10
142.4445439456314
 20
107.5652242824274
 10
142.4216232950696
 20
107.5736001707022
 10
142.3977014136472
 20
107.5797367469446
 10
142.3729182583662
 20
107.5835155859992
 10
142.3473814884589
 20
107.5847967308639
 10
142.3473814884589
 20
107.5847967308639
 10
142.321726293396
 20
107.5835155859992
 10
142.2968247129595
 20
107.5797367469446
 10
142.272805938228
 20
107.5736001707022
 10
142.2498099262036
 20
107.5652242824274
 10
142.2279335701953
 20
107.554738273199
 10
142.207306061282
 20
107.5422498022494
 10
142.1880781223889
 20
107.5278988265806
 10
142.1703358809019
 20
107.5118253031946
 10
142.154219293823
 20
107.4941153594773
 10
142.1398360203845
 20
107.4749197183539
 10
142.1273367835117
 20
107.45435680498
 10
142.11684000836
 20
107.4325558104344
 10
142.1084641200852
 20
107.4096243939493
 10
142.1023167779196
 20
107.3857132784502
 10
142.0985487047882
 20
107.3609301231692
 10
142.0972567940003
 20
107.3353933532619
 10
142.0972567940003
 20
107.3353933532619
 10
142.098537938865
 20
107.309738158199
 10
142.1023167779196
 20
107.2848473436857
 10
142.1084641200852
 20
107.2608285689542
 10
142.11684000836
 20
107.2378217910066
 10
142.1273367835117
 20
107.2159454349983
 10
142.1398360203845
 20
107.195317926085
 10
142.1542085278998
 20
107.1760792212687
 10
142.1703251149787
 20
107.1583477457049
 10
142.1880781223889
 20
107.1422203927028
 10
142.2073168272052
 20
107.1278478851875
 10
142.2279335701953
 20
107.1153594142379
 10
142.2498099262036
 20
107.1048518731631
 10
142.2728167041512
 20
107.0964759848882
 10
142.2968247129595
 20
107.0903286427226
 10
142.321726293396
 20
107.086549803668
 10
142.3473814884589
 20
107.0852686588033
  0
HATCH
  5
90
330
1F
100
AcDbEntity
  8
ISS138金台
  6
Continuous
 62
   250
420
  2367521
370
    13
100
AcDbHatch
 10
0.0
 20
0.0
 30
0.0
210
0.0
220
0.0
230
1.0
  2
SOLID
 70
     1
 71
     0
 91
        1
 92
        3
 72
     0
 73
     1
 93
       67
 10
137.3423468414047
 20
106.5850623335791
 10
137.367883611312
 20
106.5863650102902
 10
137.392666766593
 20
106.590154615268
 10
137.4165778820922
 20
106.596312723357
 10
137.4395092985772
 20
106.604742441248
 10
137.4613210590461
 20
106.6152930460157
 10
137.4818732064967
 20
106.6278245806582
 10
137.5010796135434
 20
106.6422401518664
 10
137.5187787913375
 20
106.6583890367151
 10
137.5348630806467
 20
106.6761635759718
 10
137.5492140563155
 20
106.6954238126345
 10
137.5616917613418
 20
106.7160513215479
 10
137.5721885364935
 20
106.7379061457096
 10
137.5805644247683
 20
106.7608806258876
 10
137.5867010010107
 20
106.7848348050797
 10
137.5904798400653
 20
106.8096502581304
 10
137.59176098493
 20
106.8351870280377
 10
137.59176098493
 20
106.8351870280377
 10
137.5904798400653
 20
106.860723797945
 10
137.5867010010107
 20
106.8855392509956
 10
137.5805644247683
 20
106.9094934301878
 10
137.5721885364935
 20
106.9324571444425
 10
137.5616917613418
 20
106.9543227345275
 10
137.5492140563155
 20
106.9749287115944
 10
137.5348738465699
 20
106.9941997141804
 10
137.5187787913375
 20
107.0119634875139
 10
137.5010688476202
 20
107.0281231382857
 10
137.4818732064967
 20
107.0425387094939
 10
137.4613102931228
 20
107.0550702441364
 10
137.4395092985772
 20
107.0656208489042
 10
137.4165886480154
 20
107.0740398008719
 10
137.392666766593
 20
107.0802086748841
 10
137.367883611312
 20
107.0840090457851
 10
137.3423468414047
 20
107.085300956573
 10
137.3423468414047
 20
107.085300956573
 10
137.3166916463419
 20
107.0840090457851
 10
137.2917900659053
 20
107.0802086748841
 10
137.2677712911738
 20
107.0740290349487
 10
137.2447752791494
 20
107.0656208489042
 10
137.2228989231411
 20
107.0550702441364
 10
137.2022714142279
 20
107.0425279435706
 10
137.1830327094115
 20
107.0281231382857
 10
137.1653012338477
 20
107.0119634875139
 10
137.1491738808456
 20
106.9941997141804
 10
137.1348013733303
 20
106.9749394775176
 10
137.1223129023808
 20
106.9543119686043
 10
137.1118053613059
 20
106.9324571444425
 10
137.1034294730311
 20
106.9094934301878
 10
137.0972821308654
 20
106.8855392509956
 10
137.0935140577341
 20
106.860723797945
 10
137.0922221469462
 20
106.8351870280377
 10
137.0922221469462
 20
106.8351870280377
 10
137.0935248236573
 20
106.8096394922072
 10
137.0972821308654
 20
106.7848348050797
 10
137.1034187071079
 20
106.7608806258876
 10
137.1118053613059
 20
106.7379061457096
 10
137.1223129023808
 20
106.7160513215479
 10
137.1348013733303
 20
106.6954238126345
 10
137.1491846467688
 20
106.6761635759718
 10
137.1652904679245
 20
106.6583890367151
 10
137.1830327094115
 20
106.6422401518664
 10
137.2022821801511
 20
106.6278353465815
 10
137.2228989231411
 20
106.6152930460157
 10
137.2447752791494
 20
106.604742441248
 10
137.2677820570971
 20
106.5963234892802
 10
137.2917900659053
 20
106.590154615268
 10
137.3166916463419
 20
106.586354244367
 97
        0
 75
     1
 76
     1
 98
        0
  0
LWPOLYLINE
  5
91
330
1F
100
AcDbEntity
  8
ISS138金台
  6
Continuous
 62
   250
420
  2367521
370
    13
100
AcDbPolyline
 90
       68
 70
     0
 43
0.0
 10
137.3423468414047
 20
106.5850623335791
 10
137.367883611312
 20
106.5863650102902
 10
137.392666766593
 20
106.590154615268
 10
137.4165778820922
 20
106.596312723357
 10
137.4395092985772
 20
106.604742441248
 10
137.4613210590461
 20
106.6152930460157
 10
137.4818732064967
 20
106.6278245806582
 10
137.5010796135434
 20
106.6422401518664
 10
137.5187787913375
 20
106.6583890367151
 10
137.5348630806467
 20
106.6761635759718
 10
137.5492140563155
 20
106.6954238126345
 10
137.5616917613418
 20
106.7160513215479
 10
137.5721885364935
 20
106.7379061457096
 10
137.5805644247683
 20
106.7608806258876
 10
137.5867010010107
 20
106.7848348050797
 10
137.5904798400653
 20
106.8096502581304
 10
137.59176098493
 20
106.8351870280377
 10
137.59176098493
 20
106.8351870280377
 10
137.5904798400653
 20
106.860723797945
 10
137.5867010010107
 20
106.8855392509956
 10
137.5805644247683
 20
106.9094934301878
 10
137.5721885364935
 20
106.9324571444425
 10
137.5616917613418
 20
106.9543227345275
 10
137.5492140563155
 20
106.9749287115944
 10
137.5348738465699
 20
106.9941997141804
 10
137.5187787913375
 20
107.0119634875139
 10
137.5010688476202
 20
107.0281231382857
 10
137.4818732064967
 20
107.0425387094939
 10
137.4613102931228
 20
107.0550702441364
 10
137.4395092985772
 20
107.0656208489042
 10
137.4165886480154
 20
107.0740398008719
 10
137.392666766593
 20
107.0802086748841
 10
137.367883611312
 20
107.0840090457851
 10
137.3423468414047
 20
107.085300956573
 10
137.3423468414047
 20
107.085300956573
 10
137.3166916463419
 20
107.0840090457851
 10
137.2917900659053
 20
107.0802086748841
 10
137.2677712911738
 20
107.0740290349487
 10
137.2447752791494
 20
107.0656208489042
 10
137.2228989231411
 20
107.0550702441364
 10
137.2022714142279
 20
107.0425279435706
 10
137.1830327094115
 20
107.0281231382857
 10
137.1653012338477
 20
107.0119634875139
 10
137.1491738808456
 20
106.9941997141804
 10
137.1348013733303
 20
106.9749394775176
 10
137.1223129023808
 20
106.9543119686043
 10
137.1118053613059
 20
106.9324571444425
 10
137.1034294730311
 20
106.9094934301878
 10
137.0972821308654
 20
106.8855392509956
 10
137.0935140577341
 20
106.860723797945
 10
137.0922221469462
 20
106.8351870280377
 10
137.0922221469462
 20
106.8351870280377
 10
137.0935248236573
 20
106.8096394922072
 10
137.0972821308654
 20
106.7848348050797
 10
137.1034187071079
 20
106.7608806258876
 10
137.1118053613059
 20
106.7379061457096
 10
137.1223129023808
 20
106.7160513215479
 10
137.1348013733303
 20
106.6954238126345
 10
137.1491846467688
 20
106.6761635759718
 10
137.1652904679245
 20
106.6583890367151
 10
137.1830327094115
 20
106.6422401518664
 10
137.2022821801511
 20
106.6278353465815
 10
137.2228989231411
 20
106.6152930460157
 10
137.2447752791494
 20
106.604742441248
 10
137.2677820570971
 20
106.5963234892802
 10
137.2917900659053
 20
106.590154615268
 10
137.3166916463419
 20
106.586354244367
 10
137.3423468414047
 20
106.5850623335791
  0
TEXT
  5
92
330
1F
100
AcDbEntity
  8
ISS138金台
  6
Continuous
 62
   250
420
  2367521
100
AcDbText
 10
143.0505006619269
 20
108.8925872381266
 30
0.0
 40
2.150533301035563
  1
4  .  2
 50
90.00000250447816
 41
0.403714861188616
  7
MS Gothic
100
AcDbText
  0
TEXT
  5
93
330
1F
100
AcDbEntity
  8
ISS138金台
  6
Continuous
 62
   250
420
  2367521
100
AcDbText
 10
138.1116118472126
 20
108.8925872381266
 30
0.0
 40
2.150533301035563
  1
0  .  5
 50
90.00000250447816
 41
0.3937149047851561
  7
MS Gothic
100
AcDbText
  0
TEXT
  5
94
330
1F
100
AcDbEntity
  8
ISS138金台
  6
Continuous
 62
   250
420
  2367521
100
AcDbText
 10
138.1116118472126
 20
96.44376718379678
 30
0.0
 40
2.150533301035563
  1
2 . 5
 50
90.00000250447816
 41
0.6180007934570312
  7
MS Gothic
100
AcDbText
  0
LINE
  5
95
330
1F
100
AcDbEntity
  8
ISS138金台
  6
Continuous
 62
   250
420
  2367521
370
    13
100
AcDbLine
 10
137.3423468414047
 20
103.4362451065641
 30
0.0
 11
137.3423468414047
 21
107.6882787849738
 31
0.0
  0
ENDSEC
  0
SECTION
  2
OBJECTS
  0
DICTIONARY
  5
C
330
0
100
AcDbDictionary
281
     1
  3
ACAD_DETAILVIEWSTYLE
350
9D
  3
ACAD_GROUP
350
D
  3
ACAD_LAYOUT
350
1A
  3
ACAD_MATERIAL
350
43
  3
ACAD_MLEADERSTYLE
350
5B
  3
ACAD_MLINESTYLE
350
17
  3
ACAD_PLOTSETTINGS
350
19
  3
ACAD_PLOTSTYLENAME
350
E
  3
ACAD_SCALELIST
350
47
  3
ACAD_SECTIONVIEWSTYLE
350
9E
  3
ACAD_TABLESTYLE
350
59
  3
ACAD_VISUALSTYLE
350
2A
  3
ACDB_RECOMPOSE_DATA
350
9A
  3
AcDbVariableDictionary
350
96
  0
SUN
  5
5D
330
29
100
AcDbSun
 90
        1
290
     0
 63
     7
421
 16777215
 40
1.0
291
     1
 91
  2455826
 92
 54000000
292
     0
 70
     2
 71
   256
280
     1
  0
DICTIONARY
  5
9D
102
{ACAD_REACTORS
330
C
102
}
330
C
100
AcDbDictionary
281
     1
  0
DICTIONARY
  5
D
102
{ACAD_REACTORS
330
C
102
}
330
C
100
AcDbDictionary
281
     1
  0
DICTIONARY
  5
1A
102
{ACAD_REACTORS
330
C
102
}
330
C
100
AcDbDictionary
281
     1
  3
Layout1
350
1E
  3
Layout2
350
26
  3
Model
350
22
  0
DICTIONARY
  5
43
102
{ACAD_REACTORS
330
C
102
}
330
C
100
AcDbDictionary
281
     1
  3
ByBlock
350
45
  3
ByLayer
350
44
  3
Global
350
46
  0
DICTIONARY
  5
5B
102
{ACAD_REACTORS
330
C
102
}
330
C
100
AcDbDictionary
281
     1
  3
Standard
350
5C
  0
DICTIONARY
  5
17
102
{ACAD_REACTORS
330
C
102
}
330
C
100
AcDbDictionary
281
     1
  3
Standard
350
18
  0
DICTIONARY
  5
19
102
{ACAD_REACTORS
330
C
102
}
330
C
100
AcDbDictionary
281
     1
  0
ACDBDICTIONARYWDFLT
  5
E
102
{ACAD_REACTORS
330
C
102
}
330
C
100
AcDbDictionary
281
     1
  3
Normal
350
F
100
AcDbDictionaryWithDefault
340
F
  0
DICTIONARY
  5
47
102
{ACAD_REACTORS
330
C
102
}
330
C
100
AcDbDictionary
281
     1
  3
A0
350
48
  3
A1
350
49
  3
A2
350
4A
  3
A3
350
4B
  3
A4
350
4C
  3
A5
350
4D
  3
A6
350
4E
  3
A7
350
4F
  3
A8
350
50
  3
A9
350
51
  3
B0
350
52
  3
B1
350
53
  3
B2
350
54
  3
B3
350
55
  3
B4
350
56
  3
B5
350
57
  3
B6
350
58
  0
DICTIONARY
  5
9E
102
{ACAD_REACTORS
330
C
102
}
330
C
100
AcDbDictionary
281
     1
  0
DICTIONARY
  5
59
102
{ACAD_REACTORS
330
C
102
}
330
C
100
AcDbDictionary
281
     1
  3
Standard
350
5A
  0
DICTIONARY
  5
2A
102
{ACAD_REACTORS
330
C
102
}
330
C
100
AcDbDictionary
281
     1
  3
2dWireframe
350
2F
  3
Basic
350
32
  3
Brighten
350
36
  3
ColorChange
350
3A
  3
Conceptual
350
34
  3
Dim
350
35
  3
EdgeColorOff
350
3D
  3
Facepattern
350
39
  3
Flat
350
2B
  3
FlatWithEdges
350
2C
  3
Gouraud
350
2D
  3
GouraudWithEdges
350
2E
  3
Hidden
350
31
  3
JitterOff
350
3B
  3
Linepattern
350
38
  3
OverhangOff
350
3C
  3
Realistic
350
33
  3
Shaded
350
42
  3
Shaded with edges
350
41
  3
Shades of Gray
350
3E
  3
Sketchy
350
3F
  3
Thicken
350
37
  3
Wireframe
350
30
  3
X-Ray
350
40
  0
XRECORD
  5
9A
102
{ACAD_REACTORS
330
C
102
}
330
C
100
AcDbXrecord
280
     1
 90
        1
330
5A
  0
DICTIONARY
  5
96
102
{ACAD_REACTORS
330
C
102
}
330
C
100
AcDbDictionary
281
     1
  3
CANNOSCALE
350
97
  3
CENTEREXE
350
9F
  3
CENTERLTYPEFILE
350
A0
  3
CMLEADERSTYLE
350
9C
  3
CTABLESTYLE
350
9B
  0
LAYOUT
  5
1E
102
{ACAD_REACTORS
330
1A
102
}
330
1A
100
AcDbPlotSettings
  1

  2
none_device
  4

  6

 40
0.0
 41
0.0
 42
0.0
 43
0.0
 44
0.0
 45
0.0
 46
0.0
 47
0.0
 48
0.0
 49
0.0
140
0.0
141
0.0
142
1.0
143
1.0
 70
   688
 72
     1
 73
     0
 74
     5
  7

 75
    16
 76
     0
 77
     5
 78
   300
147
1.0
148
0.0
149
0.0
100
AcDbLayout
  1
Layout1
 70
     1
 71
     1
 10
0.0
 20
0.0
 11
420.0
 21
297.0
 12
0.0
 22
0.0
 32
0.0
 14
1.000000000000000E+20
 24
1.000000000000000E+20
 34
1.000000000000000E+20
 15
-1.000000000000000E+20
 25
-1.000000000000000E+20
 35
-1.000000000000000E+20
146
0.0
 13
0.0
 23
0.0
 33
0.0
 16
1.0
 26
0.0
 36
0.0
 17
0.0
 27
1.0
 37
0.0
 76
     0
330
1B
  0
LAYOUT
  5
26
102
{ACAD_REACTORS
330
1A
102
}
330
1A
100
AcDbPlotSettings
  1

  2
none_device
  4

  6

 40
0.0
 41
0.0
 42
0.0
 43
0.0
 44
0.0
 45
0.0
 46
0.0
 47
0.0
 48
0.0
 49
0.0
140
0.0
141
0.0
142
1.0
143
1.0
 70
   688
 72
     1
 73
     0
 74
     5
  7

 75
    16
 76
     0
 77
     5
 78
   300
147
1.0
148
0.0
149
0.0
100
AcDbLayout
  1
Layout2
 70
     1
 71
     2
 10
0.0
 20
0.0
 11
0.0
 21
0.0
 12
0.0
 22
0.0
 32
0.0
 14
0.0
 24
0.0
 34
0.0
 15
0.0
 25
0.0
 35
0.0
146
0.0
 13
0.0
 23
0.0
 33
0.0
 16
1.0
 26
0.0
 36
0.0
 17
0.0
 27
1.0
 37
0.0
 76
     0
330
23
  0
LAYOUT
  5
22
102
{ACAD_REACTORS
330
1A
102
}
330
1A
100
AcDbPlotSettings
  1

  2
none_device
  4
Letter_(8.50_x_11.00_Inches)
  6

 40
6.35
 41
6.35
 42
6.35000508
 43
6.35000508
 44
215.9
 45
279.4
 46
0.0
 47
0.0
 48
0.0
 49
0.0
140
0.0
141
0.0
142
1.0
143
1.0
 70
  1712
 72
     1
 73
     0
 74
     0
  7

 75
     0
 76
     0
 77
     5
 78
   300
147
1.0
148
0.0
149
0.0
100
AcDbLayout
  1
Model
 70
     1
 71
     0
 10
0.0
 20
0.0
 11
302.9997823349792
 21
216.0016055409748
 12
0.0
 22
0.0
 32
0.0
 14
0.0
 24
0.0
 34
0.0
 15
302.9997823349792
 25
216.0016055409748
 35
0.0
146
0.0
 13
0.0
 23
0.0
 33
0.0
 16
1.0
 26
0.0
 36
0.0
 17
0.0
 27
1.0
 37
0.0
 76
     0
330
1F
331
29
  0
MATERIAL
  5
45
102
{ACAD_REACTORS
330
43
102
}
330
43
100
AcDbMaterial
  1
ByBlock
 72
     1
 94
      127
  0
MATERIAL
  5
44
102
{ACAD_REACTORS
330
43
102
}
330
43
100
AcDbMaterial
  1
ByLayer
 72
     1
 94
      127
  0
MATERIAL
  5
46
102
{ACAD_REACTORS
330
43
102
}
330
43
100
AcDbMaterial
  1
Global
 72
     1
 94
      127
  0
MLEADERSTYLE
  5
5C
102
{ACAD_REACTORS
330
5B
102
}
330
5B
100
AcDbMLeaderStyle
179
     2
170
     2
171
     1
172
     0
 90
        2
 40
0.0
 41
0.0
173
     1
 91
-1056964608
340
14
 92
       -2
290
     1
 42
2.0
291
     1
 43
8.0
  3
Standard
341
0
 44
4.0
300

342
11
174
     1
178
     6
175
     1
176
     0
 93
-1056964608
 45
4.0
292
     0
297
     0
 46
4.0
343
0
 94
-1056964608
 47
1.0
 49
1.0
140
1.0
293
     1
141
0.0
294
     1
177
     0
142
1.0
295
     0
296
     0
143
3.75
271
     0
272
     9
273
     9
298
     0
  0
MLINESTYLE
  5
18
102
{ACAD_REACTORS
330
17
102
}
330
17
100
AcDbMlineStyle
  2
Standard
 70
     0
  3

 62
   256
 51
90.0
 52
90.0
 71
     2
 49
0.5
 62
   256
  6
BYLAYER
 49
-0.5
 62
   256
  6
BYLAYER
  0
ACDBPLACEHOLDER
  5
F
102
{ACAD_REACTORS
330
E
102
}
330
E
  0
SCALE
  5
48
102
{ACAD_REACTORS
330
47
102
}
330
47
100
AcDbScale
 70
     0
300
1:1
140
1.0
141
1.0
290
     1
  0
SCALE
  5
49
102
{ACAD_REACTORS
330
47
102
}
330
47
100
AcDbScale
 70
     0
300
1:2
140
1.0
141
2.0
290
     0
  0
SCALE
  5
4A
102
{ACAD_REACTORS
330
47
102
}
330
47
100
AcDbScale
 70
     0
300
1:4
140
1.0
141
4.0
290
     0
  0
SCALE
  5
4B
102
{ACAD_REACTORS
330
47
102
}
330
47
100
AcDbScale
 70
     0
300
1:5
140
1.0
141
5.0
290
     0
  0
SCALE
  5
4C
102
{ACAD_REACTORS
330
47
102
}
330
47
100
AcDbScale
 70
     0
300
1:8
140
1.0
141
8.0
290
     0
  0
SCALE
  5
4D
102
{ACAD_REACTORS
330
47
102
}
330
47
100
AcDbScale
 70
     0
300
1:10
140
1.0
141
10.0
290
     0
  0
SCALE
  5
4E
102
{ACAD_REACTORS
330
47
102
}
330
47
100
AcDbScale
 70
     0
300
1:16
140
1.0
141
16.0
290
     0
  0
SCALE
  5
4F
102
{ACAD_REACTORS
330
47
102
}
330
47
100
AcDbScale
 70
     0
300
1:20
140
1.0
141
20.0
290
     0
  0
SCALE
  5
50
102
{ACAD_REACTORS
330
47
102
}
330
47
100
AcDbScale
 70
     0
300
1:30
140
1.0
141
30.0
290
     0
  0
SCALE
  5
51
102
{ACAD_REACTORS
330
47
102
}
330
47
100
AcDbScale
 70
     0
300
1:40
140
1.0
141
40.0
290
     0
  0
SCALE
  5
52
102
{ACAD_REACTORS
330
47
102
}
330
47
100
AcDbScale
 70
     0
300
1:50
140
1.0
141
50.0
290
     0
  0
SCALE
  5
53
102
{ACAD_REACTORS
330
47
102
}
330
47
100
AcDbScale
 70
     0
300
1:100
140
1.0
141
100.0
290
     0
  0
SCALE
  5
54
102
{ACAD_REACTORS
330
47
102
}
330
47
100
AcDbScale
 70
     0
300
2:1
140
2.0
141
1.0
290
     0
  0
SCALE
  5
55
102
{ACAD_REACTORS
330
47
102
}
330
47
100
AcDbScale
 70
     0
300
4:1
140
4.0
141
1.0
290
     0
  0
SCALE
  5
56
102
{ACAD_REACTORS
330
47
102
}
330
47
100
AcDbScale
 70
     0
300
8:1
140
8.0
141
1.0
290
     0
  0
SCALE
  5
57
102
{ACAD_REACTORS
330
47
102
}
330
47
100
AcDbScale
 70
     0
300
10:1
140
10.0
141
1.0
290
     0
  0
SCALE
  5
58
102
{ACAD_REACTORS
330
47
102
}
330
47
100
AcDbScale
 70
     0
300
100:1
140
100.0
141
1.0
290
     0
  0
TABLESTYLE
  5
5A
102
{ACAD_REACTORS
330
59
102
}
102
{ACAD_XDICTIONARY
360
98
102
}
330
59
100
AcDbTableStyle
  3
Standard
 70
     0
 71
     0
 40
0.06
 41
0.06
280
     0
281
     0
  7
Standard
140
4.5
170
     2
 62
     0
 63
   257
283
     0
 90
        4
 91
        0
  1

274
    -2
284
     1
 64
     0
275
    -2
285
     1
 65
     0
276
    -2
286
     1
 66
     0
277
    -2
287
     1
 67
     0
278
    -2
288
     1
 68
     0
279
    -2
289
     1
 69
     0
  7
Standard
140
6.0
170
     5
 62
     0
 63
   257
283
     0
 90
        4
 91
        0
  1

274
    -2
284
     1
 64
     0
275
    -2
285
     1
 65
     0
276
    -2
286
     1
 66
     0
277
    -2
287
     1
 67
     0
278
    -2
288
     1
 68
     0
279
    -2
289
     1
 69
     0
  7
Standard
140
4.5
170
     5
 62
     0
 63
   257
283
     0
 90
        4
 91
        0
  1

274
    -2
284
     1
 64
     0
275
    -2
285
     1
 65
     0
276
    -2
286
     1
 66
     0
277
    -2
287
     1
 67
     0
278
    -2
288
     1
 68
     0
279
    -2
289
     1
 69
     0
  0
VISUALSTYLE
  5
2F
102
{ACAD_REACTORS
330
2A
102
}
330
2A
100
AcDbVisualStyle
  2
2dWireframe
 70
     4
177
     3
291
     0
 70
    58
 90
        0
176
     1
 90
        2
176
     1
 90
        0
176
     1
 90
        0
176
     1
 40
0.6
176
     1
 40
30.0
176
     1
 62
     7
420
 16777215
176
     1
 90
        1
176
     1
 90
        4
176
     1
 62
     7
176
     1
 62
   257
176
     1
 90
        1
176
     1
 90
        1
176
     1
 40
1.0
176
     1
 90
        0
176
     1
 62
   257
176
     1
 40
1.0
176
     1
 90
        1
176
     1
 90
        6
176
     1
 90
        2
176
     1
 62
     7
176
     1
 90
        5
176
     1
 90
        0
176
     1
 90
        0
176
     1
290
     0
176
     1
 90
        1
176
     1
 40
0.0
176
     1
 90
        0
176
     1
290
     1
176
     1
290
     1
176
     1
290
     0
176
     1
290
     0
176
     1
290
     0
176
     1
290
     0
176
     1
290
     0
176
     1
290
     0
176
     1
290
     0
176
     1
 90
       50
176
     1
 40
0.0
176
     1
 40
1.0
176
     1
 90
        0
176
     1
 62
    18
420
        0
176
     1
 90
       50
176
     1
 90
        3
176
     1
 62
     5
420
      255
176
     1
290
     0
176
     1
 90
       50
176
     1
 90
       50
176
     1
 90
       50
176
     1
290
     0
176
     1
 90
       50
176
     1
 62
   256
176
     0
 40
1.0
176
     0
 90
        2
176
     1
  1
strokes_ogs.tif
176
     1
290
     0
176
     1
 40
1.0
176
     1
 40
1.0
176
     1
  0
VISUALSTYLE
  5
32
102
{ACAD_REACTORS
330
2A
102
}
330
2A
100
AcDbVisualStyle
  2
Basic
 70
     7
177
     3
291
     1
 70
    58
 90
        1
176
     1
 90
        0
176
     1
 90
        1
176
     1
 90
        0
176
     1
 40
0.6
176
     1
 40
30.0
176
     1
 62
     7
420
 16777215
176
     1
 90
        0
176
     1
 90
        4
176
     1
 62
     7
176
     1
 62
   257
176
     1
 90
        1
176
     1
 90
        1
176
     1
 40
1.0
176
     1
 90
        8
176
     1
 62
     7
176
     1
 40
1.0
176
     1
 90
        1
176
     1
 90
        6
176
     1
 90
        2
176
     1
 62
     7
176
     1
 90
        5
176
     1
 90
        0
176
     1
 90
        0
176
     1
290
     0
176
     1
 90
        1
176
     1
 40
0.0
176
     1
 90
        0
176
     1
290
     0
176
     1
290
     1
176
     1
290
     1
176
     1
290
     0
176
     1
290
     0
176
     1
290
     0
176
     1
290
     0
176
     1
290
     0
176
     1
290
     0
176
     1
 90
       50
176
     1
 40
0.0
176
     1
 40
1.0
176
     1
 90
        0
176
     1
 62
    18
420
        0
176
     1
 90
       50
176
     1
 90
        3
176
     1
 62
     5
420
      255
176
     1
290
     0
176
     1
 90
       50
176
     1
 90
       50
176
     1
 90
       50
176
     1
290
     0
176
     1
 90
       50
176
     1
 62
   256
176
     0
 40
1.0
176
     0
 90
        2
176
     1
  1
strokes_ogs.tif
176
     1
290
     0
176
     1
 40
1.0
176
     1
 40
1.0
176
     1
  0
VISUALSTYLE
  5
36
102
{ACAD_REACTORS
330
2A
102
}
330
2A
100
AcDbVisualStyle
  2
Brighten
 70
    12
177
     3
291
     1
 70
    58
 90
        2
176
     1
 90
        2
176
     1
 90
        0
176
     1
 90
        0
176
     1
 40
0.6
176
     1
 40
30.0
176
     1
 62
     7
420
 16777215
176
     1
 90
        1
176
     1
 90
        4
176
     1
 62
     7
176
     1
 62
   257
176
     1
 90
        1
176
     1
 90
        1
176
     1
 40
1.0
176
     1
 90
        8
176
     1
 62
     7
176
     1
 40
1.0
176
     1
 90
        1
176
     1
 90
        6
176
     1
 90
        2
176
     1
 62
     7
176
     1
 90
        5
176
     1
 90
        0
176
     1
 90
        0
176
     1
290
     0
176
     1
 90
        1
176
     1
 40
50.0
176
     1
 90
        0
176
     1
290
     0
176
     1
290
     1
176
     1
290
     1
176
     1
290
     0
176
     1
290
     0
176
     1
290
     0
176
     1
290
     0
176
     1
290
     0
176
     1
290
     0
176
     1
 90
       50
176
     1
 40
0.0
176
     1
 40
1.0
176
     1
 90
        0
176
     1
 62
    18
420
        0
176
     1
 90
       50
176
     1
 90
        3
176
     1
 62
     5
420
      255
176
     1
290
     0
176
     1
 90
       50
176
     1
 90
       50
176
     1
 90
       50
176
     1
290
     0
176
     1
 90
       50
176
     1
 62
   256
176
     0
 40
1.0
176
     0
 90
        2
176
     1
  1
strokes_ogs.tif
176
     1
290
     0
176
     1
 40
1.0
176
     1
 40
1.0
176
     1
  0
VISUALSTYLE
  5
3A
102
{ACAD_REACTORS
330
2A
102
}
330
2A
100
AcDbVisualStyle
  2
ColorChange
 70
    16
177
     3
291
     1
 70
    58
 90
        2
176
     1
 90
        2
176
     1
 90
        3
176
     1
 90
        0
176
     1
 40
0.6
176
     1
 40
30.0
176
     1
 62
     8
420
  8421504
176
     1
 90
        1
176
     1
 90
        4
176
     1
 62
     7
176
     1
 62
   257
176
     1
 90
        1
176
     1
 90
        1
176
     1
 40
1.0
176
     1
 90
        8
176
     1
 62
     8
420
  8421504
176
     1
 40
1.0
176
     1
 90
        1
176
     1
 90
        6
176
     1
 90
        2
176
     1
 62
     7
176
     1
 90
        5
176
     1
 90
        0
176
     1
 90
        0
176
     1
290
     0
176
     1
 90
        1
176
     1
 40
0.0
176
     1
 90
        0
176
     1
290
     0
176
     1
290
     1
176
     1
290
     1
176
     1
290
     0
176
     1
290
     0
176
     1
290
     0
176
     1
290
     0
176
     1
290
     0
176
     1
290
     0
176
     1
 90
       50
176
     1
 40
0.0
176
     1
 40
1.0
176
     1
 90
        0
176
     1
 62
    18
420
        0
176
     1
 90
       50
176
     1
 90
        3
176
     1
 62
     5
420
      255
176
     1
290
     0
176
     1
 90
       50
176
     1
 90
       50
176
     1
 90
       50
176
     1
290
     0
176
     1
 90
       50
176
     1
 62
   256
176
     0
 40
1.0
176
     0
 90
        2
176
     1
  1
strokes_ogs.tif
176
     1
290
     0
176
     1
 40
1.0
176
     1
 40
1.0
176
     1
  0
VISUALSTYLE
  5
34
102
{ACAD_REACTORS
330
2A
102
}
330
2A
100
AcDbVisualStyle
  2
Conceptual
 70
     9
177
     3
291
     0
 70
    58
 90
        3
176
     1
 90
        2
176
     1
 90
        0
176
     1
 90
        0
176
     1
 40
0.6
176
     1
 40
30.0
176
     1
 62
     7
420
 16777215
176
     1
 90
        2
176
     1
 90
        2
176
     1
 62
     7
176
     1
 62
   257
176
     1
 90
        1
176
     1
 90
        1
176
     1
 40
179.0
176
     1
 90
        8
176
     1
 62
     7
176
     1
 40
1.0
176
     1
 90
        1
176
     1
 90
        6
176
     1
 90
        2
176
     1
 62
     7
176
     1
 90
        3
176
     1
 90
        0
176
     1
 90
        0
176
     1
290
     0
176
     1
 90
        1
176
     1
 40
0.0
176
     1
 90
        0
176
     1
290
     0
176
     1
290
     1
176
     1
290
     1
176
     1
290
     0
176
     1
290
     0
176
     1
290
     0
176
     1
290
     0
176
     1
290
     0
176
     1
290
     0
176
     1
 90
       50
176
     1
 40
0.0
176
     1
 40
1.0
176
     1
 90
        0
176
     1
 62
    18
420
        0
176
     1
 90
       50
176
     1
 90
        3
176
     1
 62
     5
420
      255
176
     1
290
     0
176
     1
 90
       50
176
     1
 90
       50
176
     1
 90
       50
176
     1
290
     0
176
     1
 90
       50
176
     1
 62
   256
176
     0
 40
1.0
176
     0
 90
        2
176
     1
  1
strokes_ogs.tif
176
     1
290
     0
176
     1
 40
1.0
176
     1
 40
1.0
176
     1
  0
VISUALSTYLE
  5
35
102
{ACAD_REACTORS
330
2A
102
}
330
2A
100
AcDbVisualStyle
  2
Dim
 70
    11
177
     3
291
     1
 70
    58
 90
        2
176
     1
 90
        2
176
     1
 90
        0
176
     1
 90
        0
176
     1
 40
0.6
176
     1
 40
30.0
176
     1
 62
     7
420
 16777215
176
     1
 90
        1
176
     1
 90
        4
176
     1
 62
     7
176
     1
 62
   257
176
     1
 90
        1
176
     1
 90
        1
176
     1
 40
1.0
176
     1
 90
        8
176
     1
 62
     7
176
     1
 40
1.0
176
     1
 90
        1
176
     1
 90
        6
176
     1
 90
        2
176
     1
 62
     7
176
     1
 90
        5
176
     1
 90
        0
176
     1
 90
        0
176
     1
290
     0
176
     1
 90
        1
176
     1
 40
-50.0
176
     1
 90
        0
176
     1
290
     0
176
     1
290
     1
176
     1
290
     1
176
     1
290
     0
176
     1
290
     0
176
     1
290
     0
176
     1
290
     0
176
     1
290
     0
176
     1
290
     0
176
     1
 90
       50
176
     1
 40
0.0
176
     1
 40
1.0
176
     1
 90
        0
176
     1
 62
    18
420
        0
176
     1
 90
       50
176
     1
 90
        3
176
     1
 62
     5
420
      255
176
     1
290
     0
176
     1
 90
       50
176
     1
 90
       50
176
     1
 90
       50
176
     1
290
     0
176
     1
 90
       50
176
     1
 62
   256
176
     0
 40
1.0
176
     0
 90
        2
176
     1
  1
strokes_ogs.tif
176
     1
290
     0
176
     1
 40
1.0
176
     1
 40
1.0
176
     1
  0
VISUALSTYLE
  5
3D
102
{ACAD_REACTORS
330
2A
102
}
330
2A
100
AcDbVisualStyle
  2
EdgeColorOff
 70
    22
177
     3
291
     1
 70
    58
 90
        2
176
     0
 90
        2
176
     0
 90
        0
176
     0
 90
        0
176
     0
 40
0.6
176
     0
 40
30.0
176
     0
 62
     7
420
 16777215
176
     0
 90
        1
176
     0
 90
        4
176
     0
 62
     7
176
     0
 62
   257
176
     0
 90
        1
176
     0
 90
        1
176
     0
 40
1.0
176
     0
 90
        8
176
     2
 62
     7
176
     0
 40
1.0
176
     0
 90
        1
176
     0
 90
        6
176
     0
 90
        2
176
     0
 62
     7
176
     0
 90
        5
176
     0
 90
        0
176
     0
 90
        0
176
     0
290
     0
176
     0
 90
        1
176
     0
 40
0.0
176
     0
 90
        0
176
     0
290
     0
176
     0
290
     1
176
     0
290
     1
176
     0
290
     0
176
     0
290
     0
176
     0
290
     0
176
     0
290
     0
176
     0
290
     0
176
     0
290
     0
176
     0
 90
       50
176
     0
 40
0.0
176
     0
 40
1.0
176
     0
 90
        0
176
     0
 62
    18
420
        0
176
     0
 90
       50
176
     0
 90
        3
176
     0
 62
     5
420
      255
176
     0
290
     0
176
     0
 90
       50
176
     0
 90
       50
176
     0
 90
       50
176
     0
290
     0
176
     0
 90
       50
176
     0
 62
   256
176
     0
 40
1.0
176
     0
 90
        2
176
     0
  1
strokes_ogs.tif
176
     0
290
     0
176
     0
 40
1.0
176
     0
 40
1.0
176
     0
  0
VISUALSTYLE
  5
39
102
{ACAD_REACTORS
330
2A
102
}
330
2A
100
AcDbVisualStyle
  2
Facepattern
 70
    15
177
     3
291
     1
 70
    58
 90
        2
176
     1
 90
        2
176
     1
 90
        0
176
     1
 90
        0
176
     1
 40
0.6
176
     1
 40
30.0
176
     1
 62
     7
420
 16777215
176
     1
 90
        1
176
     1
 90
        4
176
     1
 62
     7
176
     1
 62
   257
176
     1
 90
        1
176
     1
 90
        1
176
     1
 40
1.0
176
     1
 90
        8
176
     1
 62
     7
176
     1
 40
1.0
176
     1
 90
        1
176
     1
 90
        6
176
     1
 90
        2
176
     1
 62
     7
176
     1
 90
        5
176
     1
 90
        0
176
     1
 90
        0
176
     1
290
     0
176
     1
 90
        1
176
     1
 40
0.0
176
     1
 90
        0
176
     1
290
     0
176
     1
290
     1
176
     1
290
     1
176
     1
290
     0
176
     1
290
     0
176
     1
290
     0
176
     1
290
     0
176
     1
290
     0
176
     1
290
     0
176
     1
 90
       50
176
     1
 40
0.0
176
     1
 40
1.0
176
     1
 90
        0
176
     1
 62
    18
420
        0
176
     1
 90
       50
176
     1
 90
        3
176
     1
 62
     5
420
      255
176
     1
290
     0
176
     1
 90
       50
176
     1
 90
       50
176
     1
 90
       50
176
     1
290
     0
176
     1
 90
       50
176
     1
 62
   256
176
     0
 40
1.0
176
     0
 90
        2
176
     1
  1
strokes_ogs.tif
176
     1
290
     0
176
     1
 40
1.0
176
     1
 40
1.0
176
     1
  0
VISUALSTYLE
  5
2B
102
{ACAD_REACTORS
330
2A
102
}
330
2A
100
AcDbVisualStyle
  2
Flat
 70
     0
177
     3
291
     1
 70
    58
 90
        2
176
     1
 90
        1
176
     1
 90
        1
176
     1
 90
        2
176
     1
 40
0.6
176
     1
 40
30.0
176
     1
 62
     7
420
 16777215
176
     1
 90
        0
176
     1
 90
        0
176
     1
 62
     7
176
     1
 62
   257
176
     1
 90
        1
176
     1
 90
        1
176
     1
 40
1.0
176
     1
 90
        8
176
     1
 62
     7
176
     1
 40
1.0
176
     1
 90
        1
176
     1
 90
        6
176
     1
 90
        2
176
     1
 62
     7
176
     1
 90
        5
176
     1
 90
        0
176
     1
 90
        0
176
     1
290
     0
176
     1
 90
       13
176
     1
 40
0.0
176
     1
 90
        0
176
     1
290
     0
176
     1
290
     1
176
     1
290
     1
176
     1
290
     0
176
     1
290
     0
176
     1
290
     0
176
     1
290
     0
176
     1
290
     0
176
     1
290
     0
176
     1
 90
       50
176
     1
 40
0.0
176
     1
 40
1.0
176
     1
 90
        0
176
     1
 62
    18
420
        0
176
     1
 90
       50
176
     1
 90
        3
176
     1
 62
     5
420
      255
176
     1
290
     0
176
     1
 90
       50
176
     1
 90
       50
176
     1
 90
       50
176
     1
290
     0
176
     1
 90
       50
176
     1
 62
   256
176
     0
 40
1.0
176
     0
 90
        2
176
     1
  1
strokes_ogs.tif
176
     1
290
     0
176
     1
 40
1.0
176
     1
 40
1.0
176
     1
  0
VISUALSTYLE
  5
2C
102
{ACAD_REACTORS
330
2A
102
}
330
2A
100
AcDbVisualStyle
  2
FlatWithEdges
 70
     1
177
     3
291
     1
 70
    58
 90
        2
176
     1
 90
        1
176
     1
 90
        1
176
     1
 90
        2
176
     1
 40
0.6
176
     1
 40
30.0
176
     1
 62
     7
420
 16777215
176
     1
 90
        1
176
     1
 90
        0
176
     1
 62
     7
176
     1
 62
   257
176
     1
 90
        1
176
     1
 90
        1
176
     1
 40
1.0
176
     1
 90
        0
176
     1
 62
   257
176
     1
 40
1.0
176
     1
 90
        1
176
     1
 90
        6
176
     1
 90
        2
176
     1
 62
     7
176
     1
 90
        5
176
     1
 90
        0
176
     1
 90
        0
176
     1
290
     0
176
     1
 90
       13
176
     1
 40
0.0
176
     1
 90
        0
176
     1
290
     0
176
     1
290
     1
176
     1
290
     1
176
     1
290
     0
176
     1
290
     0
176
     1
290
     0
176
     1
290
     0
176
     1
290
     0
176
     1
290
     0
176
     1
 90
       50
176
     1
 40
0.0
176
     1
 40
1.0
176
     1
 90
        0
176
     1
 62
    18
420
        0
176
     1
 90
       50
176
     1
 90
        3
176
     1
 62
     5
420
      255
176
     1
290
     0
176
     1
 90
       50
176
     1
 90
       50
176
     1
 90
       50
176
     1
290
     0
176
     1
 90
       50
176
     1
 62
   256
176
     0
 40
1.0
176
     0
 90
        2
176
     1
  1
strokes_ogs.tif
176
     1
290
     0
176
     1
 40
1.0
176
     1
 40
1.0
176
     1
  0
VISUALSTYLE
  5
2D
102
{ACAD_REACTORS
330
2A
102
}
330
2A
100
AcDbVisualStyle
  2
Gouraud
 70
     2
177
     3
291
     1
 70
    58
 90
        2
176
     1
 90
        2
176
     1
 90
        1
176
     1
 90
        2
176
     1
 40
0.6
176
     1
 40
30.0
176
     1
 62
     7
420
 16777215
176
     1
 90
        0
176
     1
 90
        0
176
     1
 62
     7
176
     1
 62
   257
176
     1
 90
        1
176
     1
 90
        1
176
     1
 40
1.0
176
     1
 90
        0
176
     1
 62
     7
176
     1
 40
1.0
176
     1
 90
        1
176
     1
 90
        6
176
     1
 90
        2
176
     1
 62
     7
176
     1
 90
        5
176
     1
 90
        0
176
     1
 90
        0
176
     1
290
     0
176
     1
 90
       13
176
     1
 40
0.0
176
     1
 90
        0
176
     1
290
     0
176
     1
290
     1
176
     1
290
     1
176
     1
290
     0
176
     1
290
     0
176
     1
290
     0
176
     1
290
     0
176
     1
290
     0
176
     1
290
     0
176
     1
 90
       50
176
     1
 40
0.0
176
     1
 40
1.0
176
     1
 90
        0
176
     1
 62
    18
420
        0
176
     1
 90
       50
176
     1
 90
        3
176
     1
 62
     5
420
      255
176
     1
290
     0
176
     1
 90
       50
176
     1
 90
       50
176
     1
 90
       50
176
     1
290
     0
176
     1
 90
       50
176
     1
 62
   256
176
     0
 40
1.0
176
     0
 90
        2
176
     1
  1
strokes_ogs.tif
176
     1
290
     0
176
     1
 40
1.0
176
     1
 40
1.0
176
     1
  0
VISUALSTYLE
  5
2E
102
{ACAD_REACTORS
330
2A
102
}
330
2A
100
AcDbVisualStyle
  2
GouraudWithEdges
 70
     3
177
     3
291
     1
 70
    58
 90
        2
176
     1
 90
        2
176
     1
 90
        1
176
     1
 90
        2
176
     1
 40
0.6
176
     1
 40
30.0
176
     1
 62
     7
420
 16777215
176
     1
 90
        1
176
     1
 90
        0
176
     1
 62
     7
176
     1
 62
   257
176
     1
 90
        1
176
     1
 90
        1
176
     1
 40
1.0
176
     1
 90
        0
176
     1
 62
   257
176
     1
 40
1.0
176
     1
 90
        1
176
     1
 90
        6
176
     1
 90
        2
176
     1
 62
     7
176
     1
 90
        5
176
     1
 90
        0
176
     1
 90
        0
176
     1
290
     0
176
     1
 90
       13
176
     1
 40
0.0
176
     1
 90
        0
176
     1
290
     0
176
     1
290
     1
176
     1
290
     1
176
     1
290
     0
176
     1
290
     0
176
     1
290
     0
176
     1
290
     0
176
     1
290
     0
176
     1
290
     0
176
     1
 90
       50
176
     1
 40
0.0
176
     1
 40
1.0
176
     1
 90
        0
176
     1
 62
    18
420
        0
176
     1
 90
       50
176
     1
 90
        3
176
     1
 62
     5
420
      255
176
     1
290
     0
176
     1
 90
       50
176
     1
 90
       50
176
     1
 90
       50
176
     1
290
     0
176
     1
 90
       50
176
     1
 62
   256
176
     0
 40
1.0
176
     0
 90
        2
176
     1
  1
strokes_ogs.tif
176
     1
290
     0
176
     1
 40
1.0
176
     1
 40
1.0
176
     1
  0
VISUALSTYLE
  5
31
102
{ACAD_REACTORS
330
2A
102
}
330
2A
100
AcDbVisualStyle
  2
Hidden
 70
     6
177
     3
291
     0
 70
    58
 90
        1
176
     1
 90
        2
176
     1
 90
        2
176
     1
 90
        0
176
     1
 40
0.6
176
     1
 40
30.0
176
     1
 62
     7
420
 16777215
176
     1
 90
        2
176
     1
 90
        2
176
     1
 62
     7
176
     1
 62
   257
176
     1
 90
        2
176
     1
 90
        1
176
     1
 40
40.0
176
     1
 90
        0
176
     1
 62
   257
176
     1
 40
1.0
176
     1
 90
        1
176
     1
 90
        6
176
     1
 90
        2
176
     1
 62
     7
176
     1
 90
        3
176
     1
 90
        0
176
     1
 90
        0
176
     1
290
     0
176
     1
 90
        1
176
     1
 40
0.0
176
     1
 90
        0
176
     1
290
     0
176
     1
290
     1
176
     1
290
     1
176
     1
290
     0
176
     1
290
     0
176
     1
290
     0
176
     1
290
     0
176
     1
290
     0
176
     1
290
     0
176
     1
 90
       50
176
     1
 40
0.0
176
     1
 40
1.0
176
     1
 90
        0
176
     1
 62
    18
420
        0
176
     1
 90
       50
176
     1
 90
        3
176
     1
 62
     5
420
      255
176
     1
290
     0
176
     1
 90
       50
176
     1
 90
       50
176
     1
 90
       50
176
     1
290
     0
176
     1
 90
       50
176
     1
 62
   256
176
     0
 40
1.0
176
     0
 90
        2
176
     1
  1
strokes_ogs.tif
176
     1
290
     0
176
     1
 40
1.0
176
     1
 40
1.0
176
     1
  0
VISUALSTYLE
  5
3B
102
{ACAD_REACTORS
330
2A
102
}
330
2A
100
AcDbVisualStyle
  2
JitterOff
 70
    20
177
     3
291
     1
 70
    58
 90
        2
176
     0
 90
        2
176
     0
 90
        0
176
     0
 90
        0
176
     0
 40
0.6
176
     0
 40
30.0
176
     0
 62
     7
420
 16777215
176
     0
 90
        1
176
     0
 90
        4
176
     0
 62
     7
176
     0
 62
   257
176
     0
 90
        1
176
     0
 90
        1
176
     0
 40
1.0
176
     0
 90
       10
176
     2
 62
     7
176
     0
 40
1.0
176
     0
 90
        1
176
     0
 90
        6
176
     0
 90
        2
176
     0
 62
     7
176
     0
 90
        5
176
     0
 90
        0
176
     0
 90
        0
176
     0
290
     0
176
     0
 90
        1
176
     0
 40
0.0
176
     0
 90
        0
176
     0
290
     0
176
     0
290
     1
176
     0
290
     1
176
     0
290
     0
176
     0
290
     0
176
     0
290
     0
176
     0
290
     0
176
     0
290
     0
176
     0
290
     0
176
     0
 90
       50
176
     0
 40
0.0
176
     0
 40
1.0
176
     0
 90
        0
176
     0
 62
    18
420
        0
176
     0
 90
       50
176
     0
 90
        3
176
     0
 62
     5
420
      255
176
     0
290
     0
176
     0
 90
       50
176
     0
 90
       50
176
     0
 90
       50
176
     0
290
     0
176
     0
 90
       50
176
     0
 62
   256
176
     0
 40
1.0
176
     0
 90
        2
176
     0
  1
strokes_ogs.tif
176
     0
290
     0
176
     0
 40
1.0
176
     0
 40
1.0
176
     0
  0
VISUALSTYLE
  5
38
102
{ACAD_REACTORS
330
2A
102
}
330
2A
100
AcDbVisualStyle
  2
Linepattern
 70
    14
177
     3
291
     1
 70
    58
 90
        2
176
     1
 90
        2
176
     1
 90
        0
176
     1
 90
        0
176
     1
 40
0.6
176
     1
 40
30.0
176
     1
 62
     7
420
 16777215
176
     1
 90
        1
176
     1
 90
        4
176
     1
 62
     7
176
     1
 62
   257
176
     1
 90
        7
176
     1
 90
        7
176
     1
 40
1.0
176
     1
 90
        8
176
     1
 62
     7
176
     1
 40
1.0
176
     1
 90
        1
176
     1
 90
        6
176
     1
 90
        2
176
     1
 62
     7
176
     1
 90
        5
176
     1
 90
        0
176
     1
 90
        0
176
     1
290
     0
176
     1
 90
        1
176
     1
 40
0.0
176
     1
 90
        0
176
     1
290
     0
176
     1
290
     1
176
     1
290
     1
176
     1
290
     0
176
     1
290
     0
176
     1
290
     0
176
     1
290
     0
176
     1
290
     0
176
     1
290
     0
176
     1
 90
       50
176
     1
 40
0.0
176
     1
 40
1.0
176
     1
 90
        0
176
     1
 62
    18
420
        0
176
     1
 90
       50
176
     1
 90
        3
176
     1
 62
     5
420
      255
176
     1
290
     0
176
     1
 90
       50
176
     1
 90
       50
176
     1
 90
       50
176
     1
290
     0
176
     1
 90
       50
176
     1
 62
   256
176
     0
 40
1.0
176
     0
 90
        2
176
     1
  1
strokes_ogs.tif
176
     1
290
     0
176
     1
 40
1.0
176
     1
 40
1.0
176
     1
  0
VISUALSTYLE
  5
3C
102
{ACAD_REACTORS
330
2A
102
}
330
2A
100
AcDbVisualStyle
  2
OverhangOff
 70
    21
177
     3
291
     1
 70
    58
 90
        2
176
     0
 90
        2
176
     0
 90
        0
176
     0
 90
        0
176
     0
 40
0.6
176
     0
 40
30.0
176
     0
 62
     7
420
 16777215
176
     0
 90
        1
176
     0
 90
        4
176
     0
 62
     7
176
     0
 62
   257
176
     0
 90
        1
176
     0
 90
        1
176
     0
 40
1.0
176
     0
 90
        9
176
     2
 62
     7
176
     0
 40
1.0
176
     0
 90
        1
176
     0
 90
        6
176
     0
 90
        2
176
     0
 62
     7
176
     0
 90
        5
176
     0
 90
        0
176
     0
 90
        0
176
     0
290
     0
176
     0
 90
        1
176
     0
 40
0.0
176
     0
 90
        0
176
     0
290
     0
176
     0
290
     1
176
     0
290
     1
176
     0
290
     0
176
     0
290
     0
176
     0
290
     0
176
     0
290
     0
176
     0
290
     0
176
     0
290
     0
176
     0
 90
       50
176
     0
 40
0.0
176
     0
 40
1.0
176
     0
 90
        0
176
     0
 62
    18
420
        0
176
     0
 90
       50
176
     0
 90
        3
176
     0
 62
     5
420
      255
176
     0
290
     0
176
     0
 90
       50
176
     0
 90
       50
176
     0
 90
       50
176
     0
290
     0
176
     0
 90
       50
176
     0
 62
   256
176
     0
 40
1.0
176
     0
 90
        2
176
     0
  1
strokes_ogs.tif
176
     0
290
     0
176
     0
 40
1.0
176
     0
 40
1.0
176
     0
  0
VISUALSTYLE
  5
33
102
{ACAD_REACTORS
330
2A
102
}
330
2A
100
AcDbVisualStyle
  2
Realistic
 70
     8
177
     3
291
     0
 70
    58
 90
        2
176
     1
 90
        3
176
     1
 90
        0
176
     1
 90
        2
176
     1
 40
0.6
176
     1
 40
30.0
176
     1
 62
     7
420
 16777215
176
     1
 90
        0
176
     1
 90
        0
176
     1
 62
     7
176
     1
 62
   257
176
     1
 90
        1
176
     1
 90
        1
176
     1
 40
1.0
176
     1
 90
        8
176
     1
 62
   257
176
     1
 40
1.0
176
     1
 90
        1
176
     1
 90
        6
176
     1
 90
        2
176
     1
 62
     7
176
     1
 90
        3
176
     1
 90
        0
176
     1
 90
        0
176
     1
290
     0
176
     1
 90
       13
176
     1
 40
0.0
176
     1
 90
        0
176
     1
290
     0
176
     1
290
     1
176
     1
290
     1
176
     1
290
     0
176
     1
290
     0
176
     1
290
     0
176
     1
290
     0
176
     1
290
     0
176
     1
290
     0
176
     1
 90
       50
176
     1
 40
0.0
176
     1
 40
1.0
176
     1
 90
        0
176
     1
 62
    18
420
        0
176
     1
 90
       50
176
     1
 90
        3
176
     1
 62
     5
420
      255
176
     1
290
     0
176
     1
 90
       50
176
     1
 90
       50
176
     1
 90
       50
176
     1
290
     0
176
     1
 90
       50
176
     1
 62
   256
176
     0
 40
1.0
176
     0
 90
        2
176
     1
  1
strokes_ogs.tif
176
     1
290
     0
176
     1
 40
1.0
176
     1
 40
1.0
176
     1
  0
VISUALSTYLE
  5
42
102
{ACAD_REACTORS
330
2A
102
}
330
2A
100
AcDbVisualStyle
  2
Shaded
 70
    27
177
     3
291
     0
 70
    58
 90
        2
176
     1
 90
        2
176
     1
 90
        1
176
     1
 90
        2
176
     1
 40
0.6
176
     1
 40
30.0
176
     1
 62
     7
420
 16777215
176
     1
 90
        0
176
     1
 90
        4
176
     1
 62
     7
176
     1
 62
   257
176
     1
 90
        1
176
     1
 90
        1
176
     1
 40
1.0
176
     1
 90
        8
176
     1
 62
   257
176
     1
 40
1.0
176
     1
 90
        1
176
     1
 90
        6
176
     1
 90
        2
176
     1
 62
     8
420
  7895160
176
     1
 90
        3
176
     1
 90
        0
176
     1
 90
        0
176
     1
290
     0
176
     1
 90
        5
176
     1
 40
0.0
176
     1
 90
        0
176
     1
290
     0
176
     1
290
     1
176
     1
290
     1
176
     1
290
     0
176
     1
290
     0
176
     1
290
     0
176
     1
290
     0
176
     1
290
     0
176
     1
290
     0
176
     1
 90
       50
176
     1
 40
0.0
176
     1
 40
1.0
176
     1
 90
        0
176
     1
 62
    18
420
        0
176
     1
 90
       50
176
     1
 90
        3
176
     1
 62
     5
420
      255
176
     1
290
     0
176
     1
 90
       50
176
     1
 90
       50
176
     1
 90
       50
176
     1
290
     0
176
     1
 90
       50
176
     1
 62
   256
176
     0
 40
1.0
176
     0
 90
        2
176
     1
  1
strokes_ogs.tif
176
     1
290
     0
176
     1
 40
1.0
176
     1
 40
1.0
176
     1
  0
VISUALSTYLE
  5
41
102
{ACAD_REACTORS
330
2A
102
}
330
2A
100
AcDbVisualStyle
  2
Shaded with edges
 70
    26
177
     3
291
     0
 70
    58
 90
        2
176
     1
 90
        2
176
     1
 90
        1
176
     1
 90
        2
176
     1
 40
0.6
176
     1
 40
30.0
176
     1
 62
     7
420
 16777215
176
     1
 90
        1
176
     1
 90
       10
176
     1
 62
     7
176
     1
 62
   257
176
     1
 90
        2
176
     1
 90
        1
176
     1
 40
1.0
176
     1
 90
        8
176
     1
 62
   257
176
     1
 40
1.0
176
     1
 90
        1
176
     1
 90
        6
176
     1
 90
        2
176
     1
 62
     7
176
     1
 90
        3
176
     1
 90
        0
176
     1
 90
        0
176
     1
290
     0
176
     1
 90
        5
176
     1
 40
0.0
176
     1
 90
        0
176
     1
290
     0
176
     1
290
     1
176
     1
290
     1
176
     1
290
     0
176
     1
290
     0
176
     1
290
     0
176
     1
290
     0
176
     1
290
     0
176
     1
290
     0
176
     1
 90
       50
176
     1
 40
0.0
176
     1
 40
1.0
176
     1
 90
        0
176
     1
 62
    18
420
        0
176
     1
 90
       50
176
     1
 90
        3
176
     1
 62
     5
420
      255
176
     1
290
     0
176
     1
 90
       50
176
     1
 90
       50
176
     1
 90
       50
176
     1
290
     0
176
     1
 90
       50
176
     1
 62
   256
176
     0
 40
1.0
176
     0
 90
        2
176
     1
  1
strokes_ogs.tif
176
     1
290
     0
176
     1
 40
1.0
176
     1
 40
1.0
176
     1
  0
VISUALSTYLE
  5
3E
102
{ACAD_REACTORS
330
2A
102
}
330
2A
100
AcDbVisualStyle
  2
Shades of Gray
 70
    23
177
     3
291
     0
 70
    58
 90
        2
176
     1
 90
        2
176
     1
 90
        3
176
     1
 90
        0
176
     1
 40
0.6
176
     1
 40
30.0
176
     1
 62
     7
420
 16777215
176
     1
 90
        2
176
     1
 90
        2
176
     1
 62
     7
176
     1
 62
     7
176
     1
 90
        1
176
     1
 90
        1
176
     1
 40
40.0
176
     1
 90
        8
176
     1
 62
     7
176
     1
 40
1.0
176
     1
 90
        1
176
     1
 90
        6
176
     1
 90
        2
176
     1
 62
     7
176
     1
 90
        3
176
     1
 90
        0
176
     1
 90
        0
176
     1
290
     0
176
     1
 90
        1
176
     1
 40
0.0
176
     1
 90
        0
176
     1
290
     0
176
     1
290
     1
176
     1
290
     1
176
     1
290
     0
176
     1
290
     0
176
     1
290
     0
176
     1
290
     0
176
     1
290
     0
176
     1
290
     0
176
     1
 90
       50
176
     1
 40
0.0
176
     1
 40
1.0
176
     1
 90
        0
176
     1
 62
    18
420
        0
176
     1
 90
       50
176
     1
 90
        3
176
     1
 62
     5
420
      255
176
     1
290
     0
176
     1
 90
       50
176
     1
 90
       50
176
     1
 90
       50
176
     1
290
     0
176
     1
 90
       50
176
     1
 62
   256
176
     0
 40
1.0
176
     0
 90
        2
176
     1
  1
strokes_ogs.tif
176
     1
290
     0
176
     1
 40
1.0
176
     1
 40
1.0
176
     1
  0
VISUALSTYLE
  5
3F
102
{ACAD_REACTORS
330
2A
102
}
330
2A
100
AcDbVisualStyle
  2
Sketchy
 70
    24
177
     3
291
     0
 70
    58
 90
        1
176
     1
 90
        2
176
     1
 90
        2
176
     1
 90
        0
176
     1
 40
0.6
176
     1
 40
30.0
176
     1
 62
     7
420
 16777215
176
     1
 90
        2
176
     1
 90
        2
176
     1
 62
     7
176
     1
 62
     7
176
     1
 90
        1
176
     1
 90
        1
176
     1
 40
40.0
176
     1
 90
       11
176
     1
 62
     7
176
     1
 40
1.0
176
     1
 90
        1
176
     1
 90
        6
176
     1
 90
        2
176
     1
 62
     7
176
     1
 90
        6
176
     1
 90
        0
176
     1
 90
        0
176
     1
290
     0
176
     1
 90
        1
176
     1
 40
0.0
176
     1
 90
        0
176
     1
290
     0
176
     1
290
     1
176
     1
290
     1
176
     1
290
     0
176
     1
290
     0
176
     1
290
     0
176
     1
290
     0
176
     1
290
     0
176
     1
290
     0
176
     1
 90
       50
176
     1
 40
0.0
176
     1
 40
1.0
176
     1
 90
        0
176
     1
 62
    18
420
        0
176
     1
 90
       50
176
     1
 90
        3
176
     1
 62
     5
420
      255
176
     1
290
     0
176
     1
 90
       50
176
     1
 90
       50
176
     1
 90
       50
176
     1
290
     0
176
     1
 90
       50
176
     1
 62
   256
176
     0
 40
1.0
176
     0
 90
        2
176
     1
  1
strokes_ogs.tif
176
     1
290
     0
176
     1
 40
1.0
176
     1
 40
1.0
176
     1
  0
VISUALSTYLE
  5
37
102
{ACAD_REACTORS
330
2A
102
}
330
2A
100
AcDbVisualStyle
  2
Thicken
 70
    13
177
     3
291
     1
 70
    58
 90
        2
176
     1
 90
        2
176
     1
 90
        0
176
     1
 90
        0
176
     1
 40
0.6
176
     1
 40
30.0
176
     1
 62
     7
420
 16777215
176
     1
 90
        1
176
     1
 90
        4
176
     1
 62
     7
176
     1
 62
   257
176
     1
 90
        1
176
     1
 90
        1
176
     1
 40
1.0
176
     1
 90
       12
176
     1
 62
     7
176
     1
 40
1.0
176
     1
 90
        1
176
     1
 90
        6
176
     1
 90
        2
176
     1
 62
     7
176
     1
 90
        5
176
     1
 90
        0
176
     1
 90
        0
176
     1
290
     0
176
     1
 90
        1
176
     1
 40
0.0
176
     1
 90
        0
176
     1
290
     0
176
     1
290
     1
176
     1
290
     1
176
     1
290
     0
176
     1
290
     0
176
     1
290
     0
176
     1
290
     0
176
     1
290
     0
176
     1
290
     0
176
     1
 90
       50
176
     1
 40
0.0
176
     1
 40
1.0
176
     1
 90
        0
176
     1
 62
    18
420
        0
176
     1
 90
       50
176
     1
 90
        3
176
     1
 62
     5
420
      255
176
     1
290
     0
176
     1
 90
       50
176
     1
 90
       50
176
     1
 90
       50
176
     1
290
     0
176
     1
 90
       50
176
     1
 62
   256
176
     0
 40
1.0
176
     0
 90
        2
176
     1
  1
strokes_ogs.tif
176
     1
290
     0
176
     1
 40
1.0
176
     1
 40
1.0
176
     1
  0
VISUALSTYLE
  5
30
102
{ACAD_REACTORS
330
2A
102
}
330
2A
100
AcDbVisualStyle
  2
Wireframe
 70
     5
177
     3
291
     0
 70
    58
 90
        0
176
     1
 90
        2
176
     1
 90
        0
176
     1
 90
        0
176
     1
 40
0.6
176
     1
 40
30.0
176
     1
 62
     7
420
 16777215
176
     1
 90
        1
176
     1
 90
        4
176
     1
 62
     7
176
     1
 62
   257
176
     1
 90
        1
176
     1
 90
        1
176
     1
 40
1.0
176
     1
 90
        0
176
     1
 62
   257
176
     1
 40
1.0
176
     1
 90
        1
176
     1
 90
        6
176
     1
 90
        2
176
     1
 62
     7
176
     1
 90
        3
176
     1
 90
        0
176
     1
 90
        0
176
     1
290
     0
176
     1
 90
        1
176
     1
 40
0.0
176
     1
 90
        0
176
     1
290
     0
176
     1
290
     1
176
     1
290
     1
176
     1
290
     0
176
     1
290
     0
176
     1
290
     0
176
     1
290
     0
176
     1
290
     0
176
     1
290
     0
176
     1
 90
       50
176
     1
 40
0.0
176
     1
 40
1.0
176
     1
 90
        0
176
     1
 62
    18
420
        0
176
     1
 90
       50
176
     1
 90
        3
176
     1
 62
     5
420
      255
176
     1
290
     0
176
     1
 90
       50
176
     1
 90
       50
176
     1
 90
       50
176
     1
290
     0
176
     1
 90
       50
176
     1
 62
   256
176
     0
 40
1.0
176
     0
 90
        2
176
     1
  1
strokes_ogs.tif
176
     1
290
     0
176
     1
 40
1.0
176
     1
 40
1.0
176
     1
  0
VISUALSTYLE
  5
40
102
{ACAD_REACTORS
330
2A
102
}
330
2A
100
AcDbVisualStyle
  2
X-Ray
 70
    25
177
     3
291
     0
 70
    58
 90
        2
176
     1
 90
        2
176
     1
 90
        1
176
     1
 90
        1
176
     1
 40
0.5
176
     1
 40
30.0
176
     1
 62
     7
420
 16777215
176
     1
 90
        1
176
     1
 90
        0
176
     1
 62
     7
176
     1
 62
   257
176
     1
 90
        1
176
     1
 90
        1
176
     1
 40
1.0
176
     1
 90
        8
176
     1
 62
     7
176
     1
 40
1.0
176
     1
 90
        1
176
     1
 90
        6
176
     1
 90
        2
176
     1
 62
     7
176
     1
 90
        3
176
     1
 90
        0
176
     1
 90
        0
176
     1
290
     0
176
     1
 90
       13
176
     1
 40
0.0
176
     1
 90
        0
176
     1
290
     0
176
     1
290
     1
176
     1
290
     1
176
     1
290
     0
176
     1
290
     0
176
     1
290
     0
176
     1
290
     0
176
     1
290
     0
176
     1
290
     0
176
     1
 90
       50
176
     1
 40
0.0
176
     1
 40
1.0
176
     1
 90
        0
176
     1
 62
    18
420
        0
176
     1
 90
       50
176
     1
 90
        3
176
     1
 62
     5
420
      255
176
     1
290
     0
176
     1
 90
       50
176
     1
 90
       50
176
     1
 90
       50
176
     1
290
     0
176
     1
 90
       50
176
     1
 62
   256
176
     0
 40
1.0
176
     0
 90
        2
176
     1
  1
strokes_ogs.tif
176
     1
290
     0
176
     1
 40
1.0
176
     1
 40
1.0
176
     1
  0
DICTIONARYVAR
  5
97
102
{ACAD_REACTORS
330
96
102
}
330
96
100
DictionaryVariables
280
     0
  1
1:1
  0
DICTIONARYVAR
  5
9F
102
{ACAD_REACTORS
330
96
102
}
330
96
100
DictionaryVariables
280
     0
  1
3.500000
  0
DICTIONARYVAR
  5
A0
102
{ACAD_REACTORS
330
96
102
}
330
96
100
DictionaryVariables
280
     0
  1
acadiso.lin
  0
DICTIONARYVAR
  5
9C
102
{ACAD_REACTORS
330
96
102
}
330
96
100
DictionaryVariables
280
     0
  1
Standard
  0
DICTIONARYVAR
  5
9B
102
{ACAD_REACTORS
330
96
102
}
330
96
100
DictionaryVariables
280
     0
  1
Standard
  0
DICTIONARY
  5
98
330
5A
100
AcDbDictionary
280
     1
281
     1
  3
ACAD_ROUNDTRIP_2008_TABLESTYLE_CELLSTYLEMAP
360
99
  0
CELLSTYLEMAP
  5
99
102
{ACAD_REACTORS
330
98
102
}
330
98
100
AcDbCellStyleMap
 90
        3
300
CELLSTYLE
  1
TABLEFORMAT_BEGIN
 90
        5
170
     1
 91
        0
 92
    32768
 62
   257
 93
        1
300
CONTENTFORMAT
  1
CONTENTFORMAT_BEGIN
 90
        0
 91
        0
 92
        4
 93
        0
300

 40
0.0
140
1.0
 94
        5
 62
     0
340
11
144
6.0
309
CONTENTFORMAT_END
171
     1
301
MARGIN
  1
CELLMARGIN_BEGIN
 40
1.5
 40
1.5
 40
1.5
 40
1.5
 40
1.5
 40
1.5
309
CELLMARGIN_END
 94
        6
 95
        1
302
GRIDFORMAT
  1
GRIDFORMAT_BEGIN
 90
        0
 91
        1
 62
     0
 92
       -2
340
14
 93
        0
 40
0.045
309
GRIDFORMAT_END
 95
        2
302
GRIDFORMAT
  1
GRIDFORMAT_BEGIN
 90
        0
 91
        1
 62
     0
 92
       -2
340
14
 93
        0
 40
0.045
309
GRIDFORMAT_END
 95
        4
302
GRIDFORMAT
  1
GRIDFORMAT_BEGIN
 90
        0
 91
        1
 62
     0
 92
       -2
340
14
 93
        0
 40
0.045
309
GRIDFORMAT_END
 95
        8
302
GRIDFORMAT
  1
GRIDFORMAT_BEGIN
 90
        0
 91
        1
 62
     0
 92
       -2
340
14
 93
        0
 40
0.045
309
GRIDFORMAT_END
 95
       16
302
GRIDFORMAT
  1
GRIDFORMAT_BEGIN
 90
        0
 91
        1
 62
     0
 92
       -2
340
14
 93
        0
 40
0.045
309
GRIDFORMAT_END
 95
       32
302
GRIDFORMAT
  1
GRIDFORMAT_BEGIN
 90
        0
 91
        1
 62
     0
 92
       -2
340
14
 93
        0
 40
0.045
309
GRIDFORMAT_END
309
TABLEFORMAT_END
  1
CELLSTYLE_BEGIN
 90
        1
 91
        1
300
_TITLE
309
CELLSTYLE_END
300
CELLSTYLE
  1
TABLEFORMAT_BEGIN
 90
        5
170
     1
 91
        0
 92
        0
 62
   257
 93
        1
300
CONTENTFORMAT
  1
CONTENTFORMAT_BEGIN
 90
        0
 91
        0
 92
        4
 93
        0
300

 40
0.0
140
1.0
 94
        5
 62
     0
340
11
144
4.5
309
CONTENTFORMAT_END
171
     1
301
MARGIN
  1
CELLMARGIN_BEGIN
 40
1.5
 40
1.5
 40
1.5
 40
1.5
 40
1.5
 40
1.5
309
CELLMARGIN_END
 94
        6
 95
        1
302
GRIDFORMAT
  1
GRIDFORMAT_BEGIN
 90
        0
 91
        1
 62
     0
 92
       -2
340
14
 93
        0
 40
0.045
309
GRIDFORMAT_END
 95
        2
302
GRIDFORMAT
  1
GRIDFORMAT_BEGIN
 90
        0
 91
        1
 62
     0
 92
       -2
340
14
 93
        0
 40
0.045
309
GRIDFORMAT_END
 95
        4
302
GRIDFORMAT
  1
GRIDFORMAT_BEGIN
 90
        0
 91
        1
 62
     0
 92
       -2
340
14
 93
        0
 40
0.045
309
GRIDFORMAT_END
 95
        8
302
GRIDFORMAT
  1
GRIDFORMAT_BEGIN
 90
        0
 91
        1
 62
     0
 92
       -2
340
14
 93
        0
 40
0.045
309
GRIDFORMAT_END
 95
       16
302
GRIDFORMAT
  1
GRIDFORMAT_BEGIN
 90
        0
 91
        1
 62
     0
 92
       -2
340
14
 93
        0
 40
0.045
309
GRIDFORMAT_END
 95
       32
302
GRIDFORMAT
  1
GRIDFORMAT_BEGIN
 90
        0
 91
        1
 62
     0
 92
       -2
340
14
 93
        0
 40
0.045
309
GRIDFORMAT_END
309
TABLEFORMAT_END
  1
CELLSTYLE_BEGIN
 90
        2
 91
        1
300
_HEADER
309
CELLSTYLE_END
300
CELLSTYLE
  1
TABLEFORMAT_BEGIN
 90
        5
170
     1
 91
        0
 92
        0
 62
   257
 93
        1
300
CONTENTFORMAT
  1
CONTENTFORMAT_BEGIN
 90
        0
 91
        0
 92
        4
 93
        0
300

 40
0.0
140
1.0
 94
        2
 62
     0
340
11
144
4.5
309
CONTENTFORMAT_END
171
     1
301
MARGIN
  1
CELLMARGIN_BEGIN
 40
1.5
 40
1.5
 40
1.5
 40
1.5
 40
1.5
 40
1.5
309
CELLMARGIN_END
 94
        6
 95
        1
302
GRIDFORMAT
  1
GRIDFORMAT_BEGIN
 90
        0
 91
        1
 62
     0
 92
       -2
340
14
 93
        0
 40
0.045
309
GRIDFORMAT_END
 95
        2
302
GRIDFORMAT
  1
GRIDFORMAT_BEGIN
 90
        0
 91
        1
 62
     0
 92
       -2
340
14
 93
        0
 40
0.045
309
GRIDFORMAT_END
 95
        4
302
GRIDFORMAT
  1
GRIDFORMAT_BEGIN
 90
        0
 91
        1
 62
     0
 92
       -2
340
14
 93
        0
 40
0.045
309
GRIDFORMAT_END
 95
        8
302
GRIDFORMAT
  1
GRIDFORMAT_BEGIN
 90
        0
 91
        1
 62
     0
 92
       -2
340
14
 93
        0
 40
0.045
309
GRIDFORMAT_END
 95
       16
302
GRIDFORMAT
  1
GRIDFORMAT_BEGIN
 90
        0
 91
        1
 62
     0
 92
       -2
340
14
 93
        0
 40
0.045
309
GRIDFORMAT_END
 95
       32
302
GRIDFORMAT
  1
GRIDFORMAT_BEGIN
 90
        0
 91
        1
 62
     0
 92
       -2
340
14
 93
        0
 40
0.045
309
GRIDFORMAT_END
309
TABLEFORMAT_END
  1
CELLSTYLE_BEGIN
 90
        3
 91
        2
300
_DATA
309
CELLSTYLE_END
  0
ENDSEC
  0
EOF
